Misc Unsigned Bands - Seven Story Fall - Last Chance tab

Tabbed By: riffman777

Symbols:

Harmonic- *
Hammer- On- h
Pull- Off- p

Intro:

|--0-0-15-0-0-7-0-0-8-0-0-10-0-0-8h10--|
|--------------------------------------|
|--------------------------------------| (X2)
|--------------------------------------|
|--------------------------------------|
|--------------------------------------|

|--0-0-17-0-0-15-0-0-14-0-0-15-0-0-14h15--0-0-17-0-0-15-0-0-14-0-0-0-19-|
|-----------------------------------------------------------------------|
|-----------------------------------------------------------------------|
|-----------------------------------------------------------------------|
|-----------------------------------------------------------------------|
|-----------------------------------------------------------------------|


|--0-0-17-0-0-15-0-0-14-0-0-15-0-0-14h15--0-0-17-0-0-15-0-0-14-0-0-0-19-|
|-----------------------------------------------------------------------|
|-----------------------------------------------------------------------|
|-----------------------------------------------------------------------|
|-----------------------------------------------------------------------|
|-----------------------------------------------------------------------|

Repeat intro 1 more time.

Chorus:


|---------------------------------------------------------------------|
|---------------------------------------------------------------------|
|---------------------------------------------------------------------| (X2)
|--2-2-2-2-2-2-2-2---10-10-10-10-10----12-12-12-12-12---7-7-7-7-7-7-7-|
|--2-2-2-2-2-2-2-2---10-10-10-10-10----12-12-12-12-12---7-7-7-7-7-7-7-|
|--2-2-2-2-2-2-2-2---10-10-10-10-10----12-12-12-12-12---7-7-7-7-7-7-7-|


|------------10-|
|--5----7-------|
|---------------|    (X2)
|---------------|
|---------------|
|---------------|


Verse:


|-----------------------------------------------------------------------|
|-----------------------------------------------------------------------|
|-----------------------------------------------------------------------|
|--2-2-2-2-2-2-2-2---0-0-0-0-0-0-0---7-7-7-7-7-7-7----10-10-10-10-10-10-|
|--2-2-2-2-2-2-2-2---0-0-0-0-0-0-0---7-7-7-7-7-7-7----10-10-10-10-10-10-|
|--2-2-2-2-2-2-2-2---0-0-0-0-0-0-0---7-7-7-7-7-7-7----10-10-10-10-10-10-|


|-----------------------------------------------------------------------|
|-----------------------------------------------------------------------|
|-----------------------------------------------------------------------|
|--2-2-2-2-2-2-2-2---0-0-0-0-0-0-0---7-7-7-7-7-7-7----10-10-10-10-10-10-|
|--2-2-2-2-2-2-2-2---0-0-0-0-0-0-0---7-7-7-7-7-7-7----10-10-10-10-10-10-|
|--2-2-2-2-2-2-2-2---0-0-0-0-0-0-0---7-7-7-7-7-7-7----10-10-10-10-10-10-|

|---------|
|---------|
|---7*----|
|---------|
|---------|
|---------|


Chorus:


|---------------------------------------------------------------------|
|---------------------------------------------------------------------|
|---------------------------------------------------------------------| (X2)
|--2-2-2-2-2-2-2-2---10-10-10-10-10----12-12-12-12-12---7-7-7-7-7-7-7-|
|--2-2-2-2-2-2-2-2---10-10-10-10-10----12-12-12-12-12---7-7-7-7-7-7-7-|
|--2-2-2-2-2-2-2-2---10-10-10-10-10----12-12-12-12-12---7-7-7-7-7-7-7-|


Guitar #1:

|---15p-14-------------------------------|
|-----------15p12--12---5*--8*-----------|
|-----------------------------7*--5*-----|   (X2)
|----------------------------------------|
|----------------------------------------|
|----------------------------------------|


Guitar #2:

|---------------------|
|---------------------|
|---------------------|
|--2-2---0---2-2----0-|
|--2-2---0---2-2----0-|
|--2-2---0---2-2----0-|


Verse:


|-----------------------------------------------------------------------|
|-----------------------------------------------------------------------|
|-----------------------------------------------------------------------|
|--2-2-2-2-2-2-2-2---0-0-0-0-0-0-0---7-7-7-7-7-7-7----10-10-10-10-10-10-|
|--2-2-2-2-2-2-2-2---0-0-0-0-0-0-0---7-7-7-7-7-7-7----10-10-10-10-10-10-|
|--2-2-2-2-2-2-2-2---0-0-0-0-0-0-0---7-7-7-7-7-7-7----10-10-10-10-10-10-|


|-----------------------------------------------------------------------|
|-----------------------------------------------------------------------|
|-----------------------------------------------------------------------|
|--2-2-2-2-2-2-2-2---0-0-0-0-0-0-0---7-7-7-7-7-7-7----10-10-10-10-10-10-|
|--2-2-2-2-2-2-2-2---0-0-0-0-0-0-0---7-7-7-7-7-7-7----10-10-10-10-10-10-|
|--2-2-2-2-2-2-2-2---0-0-0-0-0-0-0---7-7-7-7-7-7-7----10-10-10-10-10-10-|


|---------------------------------|
|----5*--8*--------5*--8*---------|
|----------7*--5*--------7*--5*---|
|---------------------------------|
|---------------------------------|
|---------------------------------|


Chorus:


|---------------------------------------------------------------------|
|---------------------------------------------------------------------|
|---------------------------------------------------------------------| (X2)
|--2-2-2-2-2-2-2-2---10-10-10-10-10----12-12-12-12-12---7-7-7-7-7-7-7-|
|--2-2-2-2-2-2-2-2---10-10-10-10-10----12-12-12-12-12---7-7-7-7-7-7-7-|
|--2-2-2-2-2-2-2-2---10-10-10-10-10----12-12-12-12-12---7-7-7-7-7-7-7-|


Bridge:

Both Guitars:

Palm Mute This!
|------------------------------------------------------------------|
|------------------------------------------------------------------|
|------------------------------------------------------------------|
|--2-2-2-2-2-2-2-2-2-2-2-2-2-2-2---0-0-0-0-0-0-0-0-0-0-0-0-0-0-0-0-|
|--2-2-2-2-2-2-2-2-2-2-2-2-2-2-2---0-0-0-0-0-0-0-0-0-0-0-0-0-0-0-0-|
|--2-2-2-2-2-2-2-2-2-2-2-2-2-2-2---0-0-0-0-0-0-0-0-0-0-0-0-0-0-0-0-|


Guitar #2:

Palm Mute This!
|------------------------------------------------------------------|
|------------------------------------------------------------------|
|------------------------------------------------------------------|
|--2-2-2-2-2-2-2-2-2-2-2-2-2-2-2---0-0-0-0-0-0-0-0-0-0-0-0-0-0-0-0-|
|--2-2-2-2-2-2-2-2-2-2-2-2-2-2-2---0-0-0-0-0-0-0-0-0-0-0-0-0-0-0-0-|
|--2-2-2-2-2-2-2-2-2-2-2-2-2-2-2---0-0-0-0-0-0-0-0-0-0-0-0-0-0-0-0-|

Guitar #1:


|--0-0-15-0-0-7-0-0-8-0-0-10-0-0-8h10--|
|--------------------------------------|
|--------------------------------------| (X2)
|--------------------------------------|
|--------------------------------------|
|--------------------------------------|

|--0-0-17-0-0-15-0-0-14-0-0-15-0-0-14h15--0-0-17-0-0-15-0-0-14-0-0-0-19-|
|-----------------------------------------------------------------------|
|-----------------------------------------------------------------------|
|-----------------------------------------------------------------------|
|-----------------------------------------------------------------------|
|-----------------------------------------------------------------------|


|--0-0-17-0-0-15-0-0-14-0-0-15-0-0-14h15--0-0-17-0-0-15-0-0-14-0-0-0-19-|
|-----------------------------------------------------------------------|
|-----------------------------------------------------------------------|
|-----------------------------------------------------------------------|
|-----------------------------------------------------------------------|
|-----------------------------------------------------------------------|

Guitar #1:


|-------------------------------------------------------|
|---8~--8h10---7~--7h8---3~--3h-5---1-1-1-1-1-1h3-------|
|-------------------------------------------------------|
|-------------------------------------------------------|      (X2)
|-------------------------------------------------------|
|-------------------------------------------------------|


Guitar #2:

|---------------------------------|
|---------------------------------|
|---------------------------------|
|--2----2--0----0--2----2--7----7-|
|--2----2--0----0--2----2--7----7-|
|--2----2--0----0--2----2--7----7-|


|------------------------------------|
|------------------------------------|
|------------------------------------|
|--2----2--0----0--2----2--7----10---|
|--2----2--0----0--2----2--7----10---|
|--2----2--0----0--2----2--7----10---|


Chorus:


|---------------------------------------------------------------------|
|---------------------------------------------------------------------|
|---------------------------------------------------------------------| (X4)
|--2-2-2-2-2-2-2-2---10-10-10-10-10----12-12-12-12-12---7-7-7-7-7-7-7-|
|--2-2-2-2-2-2-2-2---10-10-10-10-10----12-12-12-12-12---7-7-7-7-7-7-7-|
|--2-2-2-2-2-2-2-2---10-10-10-10-10----12-12-12-12-12---7-7-7-7-7-7-7-|

Outro:

Guitar #2:

Palm Mute This!
|------------------------------------------------------------------|
|------------------------------------------------------------------|
|------------------------------------------------------------------|
|--2-2-2-2-2-2-2-2-2-2-2-2-2-2-2---0-0-0-0-0-0-0-0-0-0-0-0-0-0-0-0-|
|--2-2-2-2-2-2-2-2-2-2-2-2-2-2-2---0-0-0-0-0-0-0-0-0-0-0-0-0-0-0-0-|
|--2-2-2-2-2-2-2-2-2-2-2-2-2-2-2---0-0-0-0-0-0-0-0-0-0-0-0-0-0-0-0-|

Guitar #1:


|--0-0-15-0-0-7-0-0-8-0-0-10-0-0-8h10--|
|--------------------------------------|
|--------------------------------------| (X2)
|--------------------------------------|
|--------------------------------------|
|--------------------------------------|

|--0-0-17-0-0-15-0-0-14-0-0-15-0-0-14h15--0-0-17-0-0-15-0-0-14-0-0-0-19-|
|-----------------------------------------------------------------------|
|-----------------------------------------------------------------------|
|-----------------------------------------------------------------------|
|-----------------------------------------------------------------------|
|-----------------------------------------------------------------------|


|--0-0-17-0-0-15-0-0-14-0-0-15-0-0-14h15--0-0-17-0-0-15-0-0-14-0-0-0-19-|
|-----------------------------------------------------------------------|
|-----------------------------------------------------------------------|
|-----------------------------------------------------------------------|
|-----------------------------------------------------------------------|
|-----------------------------------------------------------------------|
Tap to rate this tab
 
# A B C D E F G H I J K L M N O P Q R S T U V W X Y Z