Misc Unsigned Bands - New Kids - Turbo tab

|---------------------------|----------------------------| 
|---------------------------|----------------------------| 
|---\7-----------10--9--7---|-----10--9--7---5--7--------| 
|--------7---8--------------|--8-------------------------| 
|---------------------------|----------------------------| 
|---------------------------|----------------------------|
 
|---------------------------|----------------------------| 
|---------------------------|----------------------------| 
|--10------------10--9--7---|----------10--9--7----------| 
|-------10---12-------------|--8---10--------------------| 
|---------------------------|----------------------------| 
|---------------------------|----------------------------| 
Tap to rate this tab
 
# A B C D E F G H I J K L M N O P Q R S T U V W X Y Z