Misc Unsigned Bands - Phineas And Ferb Love Handle - You Snuck Your Way Right Into My Heart tab

Intro

Standard Tuning

Legend:
b - Bend
h - Hammer on
r - release

1st Part

e|----12b(14)--10-----------------------------------------------------------|
B|-----------------------12--13--15--13p(12)--10----------------------------|
G|-------------------------------------------------------12--12b(14)--12----|
D|--------------------------------------------------------------------------|
A|--------------------------------------------------------------------------|
E|--------------------------------------------------------------------------|


e|--------------------------------------------------------------------------|
B|----------------10---12---10----------------------------------------------|
G|-------12h(14)-----------------12-----------------------------------------|
D|--------------------------------------------------------------------------|
A|--------------------------------------------------------------------------|
E|--------------------------------------------------------------------------|

2nd Part

e|----12b(14)--10---------12----15---17p15---12---15---17(b)19---15---------|
B|--------------------13----------------------------------------------------|
G|--------------------------------------------------------------------------|
D|-12-----------------------------------------------------------------------|
A|--------------------------------------------------------------------------|
E|--------------------------------------------------------------------------|


e|--12h(15)---17---19--17---15----------------------------------------------|
B|--------------------------------------------------------------------------|
G|--------------------------------------------------------------------------|
D|--------------------------------------------------------------------------|
A|--------------------------------------------------------------------------|
E|--------------------------------------------------------------------------|

Submitted by: xProf
January 3, 2011
Tap to rate this tab
 
# A B C D E F G H I J K L M N O P Q R S T U V W X Y Z