Misc Unsigned Bands - Mechaghostman2 - Yesterday Was Like Today And Today Was Like Tomorrow tab

Standard Tuning

This was an original song that I made for our band. Song never took off with
our band, but I still think it sounds nice.

Intro X3

E|------------------------------|
B|------------------------------|
G|-2---2--5---3---2-------------|
D|---3------3---3---3--2--3-----|
A|------------------------------|
E|------------------------------|

E|----------------------------------|
B|----------------------------------|
G|-3-3-3-3-3-3-3-3-2-2-2-2-2-2-2-2--|
D|-1-1-1-1-1-1-1-1-0-0-0-0-0-0-0-0--|
A|----------------------------------|
E|----------------------------------|

Riff One X4

E|--------------------------------------|
B|--------------------------------------|
G|-2---2---2---2-----0---0---0---0---0--|
D|---0---0---0---0-3---2---2---2---0----|
A|--------------------------------------|
E|--------------------------------------|

Riff Two X4

E|----------------------------------|
B|----------------------------------|
G|-7---7---7---7---5---5---4---4----|
D|---5---5---5---5---3---3---2---2--|
A|----------------------------------|
E|----------------------------------|

Riff One X4

E|--------------------------------------|
B|--------------------------------------|
G|-2---2---2---2-----0---0---0---0---0--|
D|---0---0---0---0-3---2---2---2---0----|
A|--------------------------------------|
E|--------------------------------------|

Riff Two X4

E|----------------------------------|
B|----------------------------------|
G|-7---7---7---7---5---5---4---4----|
D|---5---5---5---5---3---3---2---2--|
A|----------------------------------|
E|----------------------------------|

Riff One X4

E|--------------------------------------|
B|--------------------------------------|
G|-2---2---2---2-----0---0---0---0---0--|
D|---0---0---0---0-3---2---2---2---0----|
A|--------------------------------------|
E|--------------------------------------|

Riff Two X4

E|----------------------------------|
B|----------------------------------|
G|-7---7---7---7---5---5---4---4----|
D|---5---5---5---5---3---3---2---2--|
A|----------------------------------|
E|----------------------------------|

Outro X3

E|------------------------------|
B|------------------------------|
G|-2---2--5---3---2-------------|
D|---3------3---3---3--2--3-----|
A|------------------------------|
E|------------------------------|

E|----------------------------------|
B|----------------------------------|
G|-3-3-3-3-3-3-3-3-2-2-2-2-2-2-2-2--|
D|-1-1-1-1-1-1-1-1-0-0-0-0-0-0-0-0--|
A|----------------------------------|
E|----------------------------------|

Something like that anyways. After the outro you can repeat Riff One and Riff Two.
Tap to rate this tab
 
# A B C D E F G H I J K L M N O P Q R S T U V W X Y Z