Song name
# A B C D E F G H I J K L M N O P Q R S T U V W X Y Z

Misc Unsigned Bands - Gitaroo Man - Bee Jam Blues tab

Bee Jam Blues tab by Nate (therefiller/toasty4you)

Game: Gitaroo Man
Company: Koei
Composer: Tomohiro Harada/COIL

PLEASE note that the time stamps indicate music from the OST. Not from the game. But 
like. The actual OST. So please take note of that.
Contact me at toasty4you@gmail.com if you have any questions or want me to change something.
This took kinda a long time to make. It was pretty tedious. So feedback would be nice!
(P.S. this version is for Ultimate Guitar)

Oh! And remember that notes contained within parentheses are OPTIONAL (or barely 
audible) notes (aka ghost notes!).

-------------
Rhythm Guitar
-------------

You hear this before the lead guitar throughout the whole song, it starts roughly around 
21 seconds in, be creative with it like just follow
the notes and add in your own "dead notes" where you feel appropriate like most funk 
musicians do. Listen to the music carefully to follow the notes.

e|-16--X-X-16-X-16--16h18-18p16-18p16------------------|
B|-16--X-X-16-X-16--16h18-18p16-18p16------------------|
G|-16--X-X-16-X-16--16h18-18p16------------------------|
D|--------------------------------------16-X 18--------|
A|-----------------------------------------------------|
E|-----------------------------------------------------|

e|-16-16------------------------------------------|
B|-16-16------------------------------------------|
G|-16-16------------------------------------------|
D|-------16-X-16-X-16-X-16-X----------------------|
A|------------------------------------------------|
E|------------------------------------------------|

-----------
Lead Guitar
-----------

0:35

e|------------------------------------------------|
B|---4-X-4-----4-X-4-----4-X-4--------------------|
G|---4-X-4-----4-X-4-----4-X-4----4---6b8b6p4--6~-|
D|---------6---------6---------6------------------|
A|------------------------------------------------|
E|------------------------------------------------|

0:45

e|--------------------------------------------------------------|
B|----------9-9-9-9-9-------------------------------------------|
G|---11b13------------13b11p8-----------------------------------|
D|------------------------------11-9b10-------------------------|
A|---------------------------------------11-10-9----------------|
E|------------------------------------------------11-10-9--7~~\-|

0:54

e|----------------------------------------------|
B|-----/7-7-7-7-7-7-7-9\------------------------|
G|-----/8-8-8-8-8-8-8-8\--------4-X-6-4~--------|
D|-------------------------6-6------------6\----|
A|----------------------------------------------|
E|----------------------------------------------|

1:08

e|---------16---------16-------16-------16-------16-------------------------|
B|--19b21-------19b21----19b21----19b21----19b21-----19p16------------------|
G|----------------------------------------------------------18--18p16-------|
D|---------------------------------------------------------------------18~--|
A|--------------------------------------------------------------------------|
E|--------------------------------------------------------------------------|

1:18

e|-------------------------------------------------------------|
B|-------------------------------------------------------------|
G|------------11-13----16b18b16----16--18b20b18p16------18-16--|
D|------11-13-------------------18------------------16---------|
A|---14--------------------------------------------------------|
E|-------------------------------------------------------------|

e|-------------------------------------------------------------|
B|---------19--------19--------19-------19---------------------|
G|---18b20-----18b20-----18b20----18b20-----18b20b18p16--------|
D|-------------------------------------------------------18~---|
A|-------------------------------------------------------------|
E|-------------------------------------------------------------|

1:27

e|-------------16------------16--------------------------------------|
B|---19b21~~------19------------19-----------------------------------|
G|--------------------18b20--------18b20b18p16--18--16b18b16---------|
D|-----------------------------------------------------------18-18---|
A|-------------------------------------------------------------------|
E|-------------------------------------------------------------------|


1:36

e|----------------------------------------------------------------|
B|---14b16b14b16b14b16b14b16b14b16-----14-12-14-12----------------|
G|---14b15b14b15b14b15b14b15b14b15------x------------13-11-13-13~-|
D|----------------------------------------------------------------|
A|----------------------------------------------------------------|
E|----------------------------------------------------------------|

1:51

e|--------------------------------------------------------------------------|
B|--------------------------------------------------------------------------|
G|----------------4b5b4-------4---8b6p4-----4---4b5b4-------4-----4---------|
D|-----------4-6---------6---------------6-------------6-4-----6----6-6p4-6-|
A|------4-6-----------------------------------------------------------------|
E|---7----------------------------------------------------------------------|

2:00

e|--------------------------------------------------------------|
B|-4b5-X-X-4b5-4-4-4-4------------------------------------------|
G|-4b5-X-X-4b5-4-4-4-4-6b8b6-4--6-4-6b8b6-4--6b8b6--------------|
D|---------------------------------------------------6-4--------|
A|--------------------------------------------------------------|
E|--------------------------------------------------------------|

2:09

e|--------------------------------------------------------------|
B|-----7---7---7-7---7---7---7---7---7--------------------------|
G|-0s8---8---8-----8---8---8---8---8----------------------------|
D|--------------------------------------6s0---------------------|
A|--------------------------------------------------------------|
E|--------------------------------------------------------------|

2:19

e|-4------------------------------------------------------------|
B|----7b9----------------6-(4)----------------------------------|
G|---------6-4-----------6--4-----------------------------------|
D|-------------6p4-6~-----------6p4-----------------------------|
A|----------------------------------6p4s2-----------------------|
E|--------------------------------------------------------------|

2:38

e|----------------------------------------------------------------------------|
B|----------------------------------------------------------------------------|
G|----------------4b5b4-------4--6--6b8b6p4---4b5---4h6b7b6b7-4-6-4---------4-|
D|-----------4-6---------6------------------6-----6------------------6-6-6----|
A|------4-6-------------------------------------------------------------------|
E|---7------------------------------------------------------------------------|

e|----------4---4---7--4----4--------4---------------------------------------|
B|--------4---4-----------7----7b9-----7-4-----------------------------------|
G|---6b8-----------------------------------6b8b6--4-6---4b6b4----------------|
D|------------------------------------------------------------6p4-6-6--------|
A|---------------------------------------------------------------------------|
E|---------------------------------------------------------------------------|

2:56

e|-----------------------------------|-----------------|
B|--14b16--16b14p12--14-12-----------|---12b13b12------|
G|--------------------------13-11-13-|-------------13--|(x4)
D|-----------------------------------|-----------------|
A|-----------------------------------|-----------------|
E|-----------------------------------|-----------------|

e|-------------|--14----13----11-----|      |--14b16~----|
B|---12b13b12--|-----11----11----11--|      |------------|
G|-------------|---------------------|<-(x5)|------------|
D|-------------|---------------------|      |------------|
A|-------------|---------------------|      |------------|
E|-------------|---------------------|      |------------|

3:11

e|----------x-x----------x-----x-----x----------|
B|--(6)-(4)-x-x--(4)-(4)-x-(6)-x-(4)-x-(4)-(4)--|
G|---6---4--x-x---4---4--x--6--x--4--x--4---4---|
D|----------x-x----------x-----x-----x----------|
A|----------------------------------------------|
E|----------------------------------------------|

e|---------------------------x-x------------|
B|-------------------(6)-(4)-x-x-(4)-(4)----|
G|---6b8--4--------4--6---4--x-x--4---4b5---|
D|-----------6p4-6-----------x-x------------|
A|------------------------------------------|
E|------------------------------------------|

3:20

e|-----------------------------------------------------------|
B|---14b16--16b14p12-12~--14---------------------------------|
G|-----------------------------------11-13-11----11----------|
D|--------------------------------------------13----13-12-11-|
A|-----------------------------------------------------------|
E|-----------------------------------------------------------|

e|---------------------------------|
B|----------------------------12/--|
G|---------------------11-13-(11)/-|
D|---------------11'13-------------|
A|14-11----11-14-------------------|
E|------14-------------------------|

Alright. This next part can be a little hard to tab since the guitar is being played in 
harmony with others
(or with an effects pedal). But whatever. If you don't like my way, do it your own.

3:30

e|---------------------------------------------------------------------------|
B|---------------------------------------------------------------------------|
G|--8~-----10~--11~---13--15b16b15~----15b16--15--13--11~--------------------|
D|---------------------------------------------------------------------------|
A|---------------------------------------------------------------------------|
E|---------------------------------------------------------------------------|

e|--------------------------------------------------------------11-----------|
B|-------11~--12--14b16b14~----14b16--14--12--11~---12--14~------------------|
G|---13----------------------------------------------------------------------|
D|---------------------------------------------------------------------------|
A|---------------------------------------------------------------------------|
E|---------------------------------------------------------------------------|

e|---13b14b13~----13b14--13--11----------11--13~-----14--16b18b16~-----------|
B|------------------------------14~------------------------------------------|
G|---------------------------------------------------------------------------|
D|---------------------------------------------------------------------------|
A|---------------------------------------------------------------------------|
E|---------------------------------------------------------------------------|

This is confusing. A guitar really isn't audible at this part. But in the game it makes 
you play the final notes.
So I dunno. Just do octaves or something.

e|--------------------------|
B|--------------------------|
G|---15--15--15--15--15-----|
D|--------------------------| etc. -> the end
A|--(13)(13)(13)(13)(13)----|
E|--------------------------|
Tap to rate this tab
 
# A B C D E F G H I J K L M N O P Q R S T U V W X Y Z