Song name
# A B C D E F G H I J K L M N O P Q R S T U V W X Y Z

Misc Unsigned Bands - Mari Pokinen - Paradiis tab

Capo - 5.


Intro:
|---------0--------|---------2--------|---------3--------|---------3-------|
|------3-----3-----|------3-----3-----|------3-----3-----|------3-----3----|
|---0-----------0--|---0-----------0--|---0-----------0--|---0-----------0-|
|------------------|------------------|------------------|-----------------|
|------------------|------------------|3-----------------|3----------------|
|0-----------------|0-----------------|------------------|-----------------|

|---------0--------|---------2--------|---------3--------|--3---3----------|
|------3-----3-----|------3-----3-----|------3-----3-----|--3------3-------|
|---0-----------0--|---0-----------0--|---0-----------0--|--0---------0----|
|------------------|------------------|------------------|-----------------|
|------------------|------------------|3-----------------|--3--------------|
|0-----------------|0-----------------|------------------|-----------------|

Salm1
|---------2--------|---------2--------|---------2--------|---------2-------|
|------3-----3-----|------3-----3-----|------3-----3-----|------3-----3----|
|---0-----------0--|---0-----------0--|---0-----------0--|---0-----------0-|
|------------------|------------------|------------------|-----------------|
|------------------|------------------|3-----------------|3----------------|
|3-----------------|3-----------------|------------------|-----------------|
x3

|---------0--------|---------0--------|---------3--------|--3--------------|
|------3-----3-----|------3-----3-----|------3-----3-----|--3--------------|
|---0-----------0--|---0-----------0--|---0-----------0--|--0--------------|
|0-----------------|0-----------------|------------------|-----------------|
|------------------|------------------|3-----------------|--3--------------|
|------------------|------------------|------------------|-----------------|

Salm2
|--------0h2-------|--------0h2-------|--------0h2-------|--------0h2------|
|------3-----3-----|------3-----3-----|------3-----3-----|------3-----3----|
|---0-----------0--|---0-----------0--|---0-----------0--|---0-----------0-|
|------------------|------------------|------------------|-----------------|
|------------------|------------------|3-----------------|3----------------|
|3-----------------|3-----------------|------------------|-----------------|
x3

|------0------|------0------|------3------|------2------|------2------|
|----3---3----|----3---3----|----3---3----|----3---3----|----3---3----|
|--0-------0--|--0-------0--|--0-------0--|--0-------0--|--0-------0--|
|0------------|0------------|-------------|-------------|-------------|
|-------------|-------------|3------------|3------------|3------------|
|-------------|-------------|-------------|-------------|-------------|

Vahekäik refrääni
|-0h2-2-2-4-3-|
|-------------|
|-------------|
|-------------|
|-------------|
|-------------|

Refrään
|---------3--------|---------3--------|---------3--------|---------3-------|
|------3-----3-----|------3-----3-----|------3-----3-----|------3-----3----|
|---0-----------0--|---0-----------0--|---0-----------0--|---0-----------0-|
|------------------|------------------|------------------|-----------------|
|------------------|------------------|------------------|-----------------|
|3-----------------|3-----------------|0-----------------|0----------------|

|---------3--------|---------3--------|----------3-------|--3----3---------|
|------3-----3-----|------3-----3-----|-------3-----3----|--3-------3------|
|---0-----------0--|---0-----------0--|-----0---------0--|--0----------0---|
|------------------|------------------|2--0--------------|-----------------|
|3-----------------|3-----------------|------------------|-----------------|
|------------------|------------------|------------------|-----------------|

|---------3--------|---------3--------|---------3--------|---------3-------|
|------3-----3-----|------3-----3-----|------3-----3-----|------3-----3----|
|---0-----------0--|---0-----------0--|---0-----------0--|---0-----------0-|
|------------------|------------------|------------------|-----------------|
|------------------|------------------|------------------|-----------------|
|3-----------------|3-----------------|0-----------------|0----------------|

|---------3--------|---------3--------|----------3-------|--3----3---------|
|------3-----3-----|------3-----3-----|-------3-----3----|--3-------3------|
|---0-----------0--|---0-----------0--|-----0---------0--|--0----------0---|
|------------------|------------------|2--0--------------|-----------------|
|3-----------------|3-----------------|------------------|-----------------|
|------------------|------------------|------------------|-----------------|

|------3------|------3------|------3------|------3------|------3------|
|----3---3----|----3---3----|----3---3----|----3---3----|----3---3----|
|--0-------0--|--0-------0--|--0-------0--|--0-------0--|--0-------0--|
|-------------|-------------|-------------|-------------|-------------|
|3------------|3------------|-------------|-------------|-------------|
|-------------|-------------|3------------|3------------|3------------|


...
Tap to rate this tab
# A B C D E F G H I J K L M N O P Q R S T U V W X Y Z