Song name
# A B C D E F G H I J K L M N O P Q R S T U V W X Y Z

Misc Unsigned Bands - Tirate Un Paso - Los Wachiturros tab

Base:

E||--------------------------|
B||--------------------------|
G||--------------------------|
D||--------------------------|
A||--------------------------|
E||---5--5-0-3-5--5-0-3-5----|

Verso:

E||----------------------------------------------------|
B||----------------------------------------------------|
G||----------------------------------------------------|
D||--7-7-7-5-7-7-7-5-7-7-7-5-7----7-7-7-5-7-7-5-7------|
A||----------------------------7------------------7----|
E||----------------------------------------------------|


Coro:                  x3
E||---------------------|--------------------|
B||---------------------|--------------------|
G||-------7b------------|--------------------|
D||-7-7-7---7-7-5-7-----|-7-7-7-5-7-7-5-7----|
A||-----------------7---|-----------------7--|
E||---------------------|--------------------|
Tap to rate this tab
# A B C D E F G H I J K L M N O P Q R S T U V W X Y Z