Song name
# A B C D E F G H I J K L M N O P Q R S T U V W X Y Z

Misc Unsigned Bands - Martin Garrixm - Animals tab

Martin garrix animals (full song)
part 1

e|--------8-11---------------------------------------------------------------|
B|-9-9-11------11-11-9-8-6--8-8-9-9-6-8-8-8-8-9-9-6--------------------------|
G|---------------------------------------------------------------------------|
D|---------------------------------------------------------------------------|
A|---------------------------------------------------------------------------|
E|---------------------------------------------------------------------------|

part 2

e|---------------------------------------------------------------------------|
B|----13-13-13-13--11-11-11--9-9--------13-13-13-13--11-11-11--14-13---------|
G|--10---------------------------10--10--------------------------------------|
D|---------------------------------------------------------------------------|
A|---------------------------------------------------------------------------|
E|---------------------------------------------------------------------------|

Or
e|---------------------------------------------|
B|--1-1-1-1---------------1-1-1-1-------2-1----|
G|----------3-3-3-1-1-------------3-3-3--------|
D|-3------------------3--3---------------------|
A|---------------------------------------------|
E|---------------------------------------------|

Or
e|---------------------------------------------|
B|---------------------------------------------|
G|---------------------------------------------|
D|---------------------------------------------|
A|---3-3-3-3-1-1-1---------3-3-3-3-1-1-1-4-3---|
E|-1---------------4-4-1--1--------------------|

part 3

e|-------8-11--|
b|-9-9-11------|
g|-------------|
D|-------------|
A|-------------|
E|-------------|

i hope this tab is good and helpful for you.
Tap to rate this tab
# A B C D E F G H I J K L M N O P Q R S T U V W X Y Z