Song name
# A B C D E F G H I J K L M N O P Q R S T U V W X Y Z

Misc Unsigned Bands - The Scene Aesthetic - The Alamo Is No Place For Dancing tab

 http://www.purevolume.com/thesceneaesthetic
-----------------------------------------------
Tabbed by: Justin RiRaY
Email: Pakman7JR@hotmail.com     AIM: BeatPwner

Tuning: eBGDAE

     INTRO
 
e|----------------|
B|----3-3---3-----|
G|----------0h2---|
D|---0-0-0-----0--| X 3
A|----------------|
E|--2------3------|
 
e|-----------------------|
B|--3p2---3p2---3p2---2--|
G|-----2-----2-----2--2--|
D|------0-----0-----0-0--|
A|--------------------0--|
E|-----------------------|
Tap to rate this tab
# A B C D E F G H I J K L M N O P Q R S T U V W X Y Z