Song name
# A B C D E F G H I J K L M N O P Q R S T U V W X Y Z

Misc Unsigned Bands - An American Tragedy - Another Soldier Lying Dead In The Wake Of The Battlefield tab

Help us improve GuitareTab! Take a short survey!
THIS SONG IS IN DROP D
BAND: an American tragedy
SONG: another soldier lying dead in the wake of the battlefield
ALBUM: another soldier lying dead in the wake of the battlefield
website:www.freewebs.com/anamericantragedy
myspace:www.myspace.com/831anamericantragedy
palm mute=.
let ring x
my tabs are kinda wierd it goes top line(d) is the thickest string and it goes down
   . .    . .       . .        . .
d--4-4----4-4-------4-4--------0-0---2x-|
a--4-4----4-4-------4-4--------0-0---2x-|
d------6x------7x----------6x--------2x-|
g---------------------------------------|
b---------------------------------------|
e---------------------------------------|

   . .      . .      . .
d--4-4------4-4------4-4---------------|
a--4-4------4-4------4-4---------------|
d-------6-7-----6-7------6-------------|  (repeat 4 times)
g--------------------------------------|
b--------------------------------------|
e--------------------------------------|
          . . . . . . . . .
d-----2-0-0-0-0-0-0-0-0-0-0----------|
a-----2-0-0-0-0-0-0-0-0-0-0----------|
d-----2-0-0-0-0-0-0-0-0-0-0----------| (repeat 5 times)
g------------------------------------|
b------------------------------------|
e------------------------------------|


   . .      . .      . .
d--4-4------4-4------4-4---------------|
a--4-4------4-4------4-4---------------|
d-------6-7-----6-7------6-------------| (repeat 4 times)
g--------------------------------------|
b--------------------------------------|
e--------------------------------------|


d--4-4------4-4------4-4---------------|
a--4-4------4-4------4-4---------------|
d-------6-7-----6-7------6-------------| (repeat 4 times)
g--------------------------------------|
b--------------------------------------|
e--------------------------------------|

"wait for you"
d--------------2x----------------------|
a--------------2x----------------------|
d--------------2x----------------------| u play the "2" thing after the words
g--------------------------------------|
b--------------------------------------|
e--------------------------------------|

   . .      . .      . .
d--4-4------4-4------4-4---------------|
a--4-4------4-4------4-4---------------|
d-------6-7-----6-7------6-------------| (repeat 4 times)
g--------------------------------------|
b--------------------------------------|
e--------------------------------------|


d------------------------------------|
a------------------------------------|
d----7-6x----------------------------|
g--6---------------------------------|
b------------------------------------|
e------------------------------------|
Related for An American Tragedy - Another Soldier Lying Dead In The Wake Of The Battlefield tab