Song name
# A B C D E F G H I J K L M N O P Q R S T U V W X Y Z

Misc Unsigned Bands - For Here Or To Go - I Hate What The Wind Does To My Hair tab

 INTRO
e| -----------------------------------|
b| -----------------------------------|  (guitar 2)
g| -----------------------------------|
d| 4--------6--------7--------9  (x16-| each chord)
a| 2--------4--------5--------7-------|
E| -----------------------------------|

 (guitar 1)
e| -------------------------------------------------------------------|
b| -------------------------------------------------------------------|
g| -------------------------------------------------------------------|
d| 4-4-4--7-7-7-6-6-9-9-9-7-7-7-6----6-6-6--7-7-7-6-6-9-9-9-7-7-7-6---|
a| 2-2-2--------------------------9--4-4-4--------------------------9-|
E| -------------------------------------------------------------------|

e| -------------------------------------------------------------------|
b| -------------------------------------------------------------------|
g| -------------------------------------------------------------------|
d| 7-7-7--7-7-7-6-6-9-9-9-7-7-7-6----9-9-9--7-7-7-6-6-9-9-9-7-7-7-6---|
a| 5-5-5--------------------------9--7-7-7--------------------------9-|
E| -------------------------------------------------------------------|

 VERSE
(guitar 2)
e| --------------------------------------------------------------------------|
b| --------------------------------------------------------------------------|
g| --------------------------------------------------------------------------|
d| -----------------8-8-8-8-8-8-8-8-------------------5-5-5-5--3-3-3-3--5--3-|
a| 6-6-6-6-6-6-6-6--6-6-6-6-6-6-6-6--6-6-6-6-6-6-6-6--3-3-3-3--1-1-1-1--3--1-|
E| 4-4-4-4-4-4-4-4-------------------4-4-4-4-4-4-4-4-------------------------|

(guitar 1)
e| ---------------------------------------------------------|
b| ---------------------------------------------------------|
g| ---------------------------------------------------------|
d| ----5-----5-----5-----5----------5-----5-----5---8-5---5-|
a| 6-6---6-8---6-6---6-8---8-6--6-6---6-8---6-6---6-----8---|
E| ---------------------------------------------------------|

 CHORUS
e| -------------------------     | ------------------------------|
b| -------------------------     | ------------------------------|
g| -------------------------     | ------------------------------|
d| 8-8-8-8-8--5-5-5--3-3-3-3  x3 | -----------8-8-8-8-8----------|
a| 6-6-6-6-6--3-3-3--1-1-1-1     | 6-6-6-6-6--6-6-6-6-6--8-8-8-8-|
E| -------------------------     | 4-4-4-4-4-------------6-6-6-6-|
                *

 SOLO
e| ------------------------------------------------------------------------|
b| 11-13-11------11-15-11-------------15-------16---13-15-13--13-15-18--13-|
g| --------12-14---------14-15-14-------17-15----15---------15--------15---|
d| ------------------------------15-17-------------------------------------|
a| ------------------------------------------------------------------------|
E| ------------------------------------------------------------------------|

e| ----------------|
b| 15-13--13-15-11-|
g| -----15---------|
d| ----------------| (guitar 1)
a| ----------------|
E| ----------------|

(guitar 2)
e| --------------------------------------------------------------------------|
b| --------------------------------------------------------------------------|
g| --------------------------------------------------------------------------|
d| -----------------8-8-8-8-8-8-8-8-------------------5-5-5-5--3-3-3-3--5--3-|
a| 6-6-6-6-6-6-6-6--6-6-6-6-6-6-6-6--6-6-6-6-6-6-6-6--3-3-3-3--1-1-1-1--3--1-|
E| 4-4-4-4-4-4-4-4-------------------4-4-4-4-4-4-4-4-------------------------|

 OUTRO
e| -------------------------     | ------------------------------|
b| -------------------------     | ------------------------------|
g| -------------------------     | ------------------------------|
d| 8-8-8-8-8--5-5-5--3-3-3-3  x3 | -----------8-8-8-8-8----------| (guitar 2)
a| 6-6-6-6-6--3-3-3--1-1-1-1     | 6-6-6-6-6--6-6-6-6-6--8-8-8-8-|
E| -------------------------     | 4-4-4-4-4-------------6-6-6-6-|
                *

(guitar 1)
e| ---------------------------------------------------------|
b| ---------------------------------------------------------|
g| ---------------------------------------------------------|
d| ----5-----5-----5-----5----------5-----5-----5---8-5---5-|
a| 6-6---6-8---6-6---6-8---8-6--6-6---6-8---6-6---6-----8---|
E| ---------------------------------------------------------|

intro
verse
chorus
verse
chorus
solo
chorus (clean)
outro
Tap to rate this tab
# A B C D E F G H I J K L M N O P Q R S T U V W X Y Z