Song name
# A B C D E F G H I J K L M N O P Q R S T U V W X Y Z

Misc Unsigned Bands - Six Inch Voices - Every Days The Day That Youve Been Waiting For tab

-------------------------------------------------------------------------------
			     Six Inch Voices - Every Day's The Day (That You've Been Waiting For)
-------------------------------------------------------------------------------
Tabbed by: Ian Cooper (Six Inch Voices)

Tuning: Standard (EADGBE)

Intro:

e|--0--0----0---------0-----0----------0-------------------------------------|
B|--0---0----0---0-----0-----0---0-----0-------------------------------------|
G|--1----------------------------------1-------------------------------------|
D|--2----2-----2---2-----2-----2---2--2--------------------------------------|
A|--2----------------------------------2-------------------------------------|
E|--0----------------------------------0-------------------------------------|

Verse: listen to song for strumming pattern

  "we're all waiting for..that reminds us....been
e|--0---------------0----------------0-------|
B|--0---------------0----------------0-------|
G|--9---------------2----------------4-------|  repeat through out verse
D|--9---------------2----------------4-------|
A|--7---------------0----------------2-------|
E|--0---------------x----------------x-------|

Chorus:

   "but there's no time....anymore, you know we've..Been through it it all
e|--0-----------------0---------------------0--------------0-----------------|
B|--0-----------------0---------------------0--------------0-----------------|
G|--2-----------------4---------------------9--------------8-----------------|
D|--2-----------------4---------------------9--------------9-----------------|
A|--0-----------------2---------------------7--------------6-----------------|
E|--x-----------------x---------------------0--------------x-----------------|

   "there's more to the world...what's in store...and Every day's the day....that you've 
waiting for
e|---0---------------------0----------------0------------0------------------------|
B|---0---------------------0----------------0------------0------------------------|
G|---2---------------------4----------------2------------4----no music on last----|
D|---2---------------------4----------------2------------4------line here---------|
A|---0---------------------2----------------0------------2------------------------|
E|---x---------------------x----------------x------------x------------------------|

Break:

e|--0-----0----0-------------------------------------------------------------|
B|--0-----0----0-------------------------------------------------------------|
G|--9-----6----4-------------------------------------------------------------|
D|--9-----6----4-------------------------------------------------------------|
A|--7-----4----2-------------------------------------------------------------|
E|--0-----x----x-------------------------------------------------------------|

REPEATE VERSE
REPEATE CHORUS
REPEATE BREAK
REPEATE CHORUS
..end on:

e|----0----------------------------------------------------------------------|
B|----0----------------------------------------------------------------------|
G|----9----------------------------------------------------------------------|
D|----9----------------------------------------------------------------------|
A|----7----------------------------------------------------------------------|
E|----0----------------------------------------------------------------------|

| /  slide up
|   slide down
| h  hammer-on
| p  pull-off
| ~  vibrato
| +  harmonic
| x  Mute note
Tap to rate this tab
# A B C D E F G H I J K L M N O P Q R S T U V W X Y Z