Song name
# A B C D E F G H I J K L M N O P Q R S T U V W X Y Z

Misc Unsigned Bands - The World In My Eyes - Who Do You Think Do You Are tab

This song is hot

Tuning: E A D G B E

Intro                                      Chorus

Guitar 1                                   Guitar 1     

Part 1                             Part 2
E |----5-555-7777-333-|            E |-7777-5555-7777-3333-|
A |-55-5-777-9999-555-|            A |-9999-7777-9999-5555-|
D |-77---777-9999-555-|            D |-9999-7777-9999-5555-|
G |-77----------------|            G |---------------------|
B |-------------------|            B |---------------------|
E |-------------------|            E |---------------------|

Play this 16 times but 
when Polo is singing 
the first three notes 
are palm mutted

Guitar 2 plays this all the song 

E |--------------------------------|
A |--------------------------------|
D |-000000000000000000000000000000-|
G |-222222222222222222222222222222-|
B |--------------------------------|
E |--------------------------------|

Until Polo sings:

You are the one
That is decaing inside
You are the one
That is growing a monster sinide

Guitar 2 plays this:

E |-----------------------------------------------------------|
A |-----------------------------------------------------------|
D |-----------------------------------------------------------|
G |-----------------------------------------------------------|
B |-15-15-15-15-15-15-15-15-15-15-15-15-15-15b(16)(17)15b(17)-|
E |-----------------------------------------------------------|

Bass

       Part 1             Part 2

E |-------3-3-3-|    E |-----3---|
A |---0-2-------|    A |-2-0---0-|
D |-0-----------|    D |---------|
G |-------------|    G |---------|


Tap to rate this tab
 
# A B C D E F G H I J K L M N O P Q R S T U V W X Y Z