Song name
# A B C D E F G H I J K L M N O P Q R S T U V W X Y Z

Misc Unsigned Bands - Terror On The Twelfth Floor - The Ballad Of John W Taylor tab

Help us improve GuitareTab! Take a short survey!
The Ballad Of John W. Taylor-Terror On The Twelfth Floor

Tabbed By:Dylan C.

Drop C Tuning


Opening Note:Let ring

C|-00000>>>>>>>>>>>>>--------------------------------------------------------|
G|-00000>>>>>>>>>>>>>--------------------------------------------------------|
C|-00000>>>>>>>>>>>>>--------------------------------------------------------|
F|---------------------------------------------------------------------------|
A|---------------------------------------------------------------------------|
D|---------------------------------------------------------------------------|

Riff 1:Play Once

C|-0-0---------8>---0-0---------8>---0-0---------8>---0-0---------8>---------|
G|------5-7-8--8>--------5-7-8--8>--------5-7-8--8>--------5-7-8--8>---5+----|
C|-------------8>---------------8>---------------8>---------------8>---------|
F|---------------------------------------------------------------------------|
A|---------------------------------------------------------------------------|
D|---------------------------------------------------------------------------|

Riff 2:Play Four Times

C|-0-0---------8>----------0-0---------8>-------------------------------------|
G|------5-7-8--8>--7-5-4--------5-7-8--8>--7-10-8-----------------------------|
C|-------------8>----------------------8>-------------------------------------|
F|----------------------------------------------------------------------------|
A|----------------------------------------------------------------------------|
D|----------------------------------------------------------------------------|

Riff 3:Breakdown Part 1 Play Four Times

C|-000000000x---000x---000x--------------------------------------------------|
G|-000000000x---000x---000x--------------------------------------------------|
C|-000000000x---000x---000x--------------------------------------------------|
F|---------------------------------------------------------------------------|
A|---------------------------------------------------------------------------|
D|---------------------------------------------------------------------------|

Riff 4:Breakdown Part 2 Play Four Times

C|-111111111>>>---111>>>---111>>>---------------------------------------------|
G|-111111111>>>---111>>>---111>>>---------------------------------------------|
C|-111111111>>>---111>>>---111>>>---------------------------------------------|
F|----------------------------------------------------------------------------|
A|----------------------------------------------------------------------------|
D|----------------------------------------------------------------------------|

Riff 5:Play Ten Times

C|-0-0-----------------0-0---------------------------------------------------|
G|------7h8------------------------------------------------------------------|
C|-----------7h8--6h7--------7/5--7------------------------------------------|
F|--------------------------11/9--11-----------------------------------------|
A|---------------------------------------------------------------------------|
D|---------------------------------------------------------------------------|

Riff 6:Play Four Times

C|---------------------------------------------------------------------------|
G|-7>------------------------------------------------------------------------|
C|----9>--12>--10>>>---------------------------------------------------------|
F|---------------------------------------------------------------------------|
A|---------------------------------------------------------------------------|
D|---------------------------------------------------------------------------|

Riff 7:Play Twelve Times

C|-0-------------------------------------------------------------------------|
G|----7----------------------------------------------------------------------|
C|-------9/10--12--10--9h10--9-----------------------------------------------|
F|---------------------------------------------------------------------------|
A|---------------------------------------------------------------------------|
D|---------------------------------------------------------------------------|

Riff 8:Play Eight Times

C|-0x--000x--000x------------------------------------------------------------|
G|-0x--000x--000x------------------------------------------------------------|
C|-0x--000x--000x------------------------------------------------------------|
F|---------------------------------------------------------------------------|
A|---------------------------------------------------------------------------|
D|---------------------------------------------------------------------------|

| /  slide
| >  let ring
| h  hammer-on
| p  pull-off
| +  harmonic
| x  Palm Mute note
=============================================================================
Related for Terror On The Twelfth Floor - The Ballad Of John W Taylor tab