Guitaretab - guitar tabs
Song name
# A B C D E F G H I J K L M N O P Q R S T U V W X Y Z

Misc Unsigned Bands - Mike Plays Bass - Last Time I Felt Like This I Went To Jail tab

Listen to the song for strumming.


Intro:
--------------------------------------------------|
--------------------------------------------------|
--------------------------------------------------|
--------------------------------------------------|
----------------3---3/7---7---7---7-7-7-7---------|
--7---7--5---5------------------------------------|

Verse:
-------------------------------------------------|
-------------------------------------------------|
-------------------------------------------------|  Play 5 times
-------------------------------------------------|
------------------------3-3-3-3-3---7-7-7-7-7----|
7-7-7-7-7---5-5-5-5-5----------------------------|


Chorus:
---------------------------------------------------|
---------------------------------------------------|
---------------------------------------------------|
---------------------------------------------------|
7-7-7-7-7---3-3-3-3-3---10-10-10-10-10---5-5-5-5-5-|  Play 4 times
---------------------------------------------------|

Verse:
-------------------------------------------------|
-------------------------------------------------|
-------------------------------------------------|  Play 5 times
-------------------------------------------------|
------------------------3-3-3-3-3---7-7-7-7-7----|
7-7-7-7-7---5-5-5-5-5----------------------------|
[ Tab from: http://www.guitaretab.com/m/misc-unsigned-bands/82184.html ]
Chorus:
---------------------------------------------------|
---------------------------------------------------|
---------------------------------------------------|
---------------------------------------------------|  Play 4 times
7-7-7-7-7---3-3-3-3-3---10-10-10-10-10---5-5-5-5-5-|
---------------------------------------------------|


-------------------------------------------------|
-------------------------------------------------|
-------------------------------------------------|   Play 5 times, let end
-------------------------------------------------|   ring out on the 4th time
------------------------3-3-3-3-3---7-7-7-7-7----|
7-7-7-7-7---5-5-5-5-5----------------------------|

Chorus:
---------------------------------------------------|
---------------------------------------------------|
---------------------------------------------------|
---------------------------------------------------|  Play 4 times
---------------------------------------------------|
7-7-7-7-7---3-3-3-3-3---10-10-10-10-10---5-5-5-5-5-|


-------------------------------------------------|
-------------------------------------------------|
-------------------------------------------------|   Play 3 times
-------------------------------------------------|
------------------------3-3-3-3-3---7-7-7-7-7----|
7-7-7-7-7---5-5-5-5-5----------------------------|

-------------------------------------------------|
-------------------------------------------------|
-------------------------------------------------|  Let end ring
-------------------------------------------------|
------------------------3-3-3-3-3-3-3-3-3-3------|
7-7-7-7-7---5-5-5-5-5------------------------3---|
Related for Mike Plays Bass - Last Time I Felt Like This I Went To Jail tab
Advertisement will be closed in 10 seconds