Song name
# A B C D E F G H I J K L M N O P Q R S T U V W X Y Z

Misc Unsigned Bands - Hector Von Corpse Salute To Black Beard - Like Jack And Sally tab

This song is a song that kicks ass. The song is made by a band in Denmark. The best band in the country.

Intro.

e-2---3-------|
B-3-2-3-2-----|
G-2-2---2-----|
D-------- x 6-|
A-------------|
E-------------|

Verse.

e-------------------|
B-------------------|
G-------------------|
D-4-4-2-2-5-5-5-2---|2 x 11
A-4-4-2-2-5-5-5-2-2-|
E-2-2-----3-3-3-----|

Chours.

e-------------------|
B-------------------|
G-------------------|
D-4-4-2-2-5-5-5-2---|2 x 11
A-4-4-2-2-5-5-5-2-2-|
E-2-2-----3-3-3-----|

Verse.

e-----------------------|
B-----------------------|
G-----------------------|
D-4-4-2-2-5-5-5-2-2 x 8-|
A-4-4-2-2-5-5-5-2-2-----|
E-2-2-----3-3-3---------|

Chours.

e-----------------------|
B-----------------------|
G-----------------------|
D-4-4-2-2-5-5-5-2-2 x 6-|
A-4-4-2-2-5-5-5-2-2-----|
E-2-2-----3-3-3---------|

Outro.

e--
B--
G--
D-4 and let that ring.
A-4
E-2

And here you go, great song great band. Chek the band out on,
www.hectorvoncorpsesalutetoblackbeard.mymusic.dk.
Tap to rate this tab
# A B C D E F G H I J K L M N O P Q R S T U V W X Y Z