Song name
# A B C D E F G H I J K L M N O P Q R S T U V W X Y Z

Misc - Red Vs Blue tab

This is the intro to the Red vs. Blue (redvsblue.com) videos.
All notes have a slight vibrato. 


e-|--------0-------------0-------------0-------------0----------------|
B-|--------1-------------1-------------1-------------1----------------|
G-|--------2-------------2-------------2-------------2-------------2--|
D-|--------2-------------2-------------2-------------2-------------3--|
A-|--0--------0------------------0--------0------------------------3--|
E-|----------------0--------0------------------0--------0----1--------|

e-|-----------------------------------------------------0-------------|
B-|---------------------------------------------------0---------------|
G-|--2-------------------1-------1------------------0-----------------|
D-|--3-------------------2-------2----------------2-------------------|
A-|--3-------------------2-------2-------------0----------------------|
E-|----------------0--------------------------------------------------|
                                              ==let ring=====  
Tap to rate this tab
# A B C D E F G H I J K L M N O P Q R S T U V W X Y Z