Song name
# A B C D E F G H I J K L M N O P Q R S T U V W X Y Z

Misc - Bamse tab

E|------------------------------------|-------------------------------------|
B|------------------------------------|-------------------------------------|
G|*-----------------------------------|------------------------------------*|
D|--------------4----2--0-------------|-------------------------------------|
A|*-----0----2--------------4--2--0---|------0--------4----2---0------0--2-*|
E|0---------------------------------0-|--2---------0---------------4--------|


E|--------------------------------------------------------------------------|
B|--------------------------------------------------------------------------|
G|--------------------------------------------------------------------------|
D|--------------------------------------------------------------------------|
A|-4-4-4-4-4-4-4-4--2-2-2-2-2-2-2-2--0-0-0-0-0-0-0-0--2-0-------------------|
E|---------------------------------------------------------4--2--0----------|

Repeat fist line, change the two last tones to: --2--0-|
Tap to rate this tab
# A B C D E F G H I J K L M N O P Q R S T U V W X Y Z