Song name
# A B C D E F G H I J K L M N O P Q R S T U V W X Y Z

Misery Loves Co - This Is No Dream tab

#----------------------------------PLEASE NOTE---------------------------------#
#This file is the author's own work and represents their interpretation of the #
#song. You may only use this file for private study, scholarship, or research. #
#------------------------------------------------------------------------------#
Misery Loves Co. - This Is No Dream
From "Misery Loves Co."

This is a nothing but a few simple riffs played against an electronic
techno-beat. Sounds great, though.

Intro riff:

Play this one a few times until the drums enter:

E --------------------------------------||
B -------------------------------------o||
G -------------------------------------o||
D --------------------------------------||
A -----7-----7-----7-----7-----6---6----||
E -0-0---0-0---0-0---0-0---0-0---0------||

This is the main riff. Just repeat it a shitload of times and have fun:

E --------------------------------------||
B -------------------------------------o||
G -------------------------------------o||
D --------------------------------------||
A -2----9-8--3-2-------8-7--8-7--8-2----||
E -0----7-6--1-0-------6-5--6-5--6-0----||

Anyone with more tabs from this sweedish industrial band:
Please write!!!

      "Killing is business,
       business is good
       Send me money, and I'll do what I should"

      wichmann@fys.ku.dk
Tap to rate this tab
# A B C D E F G H I J K L M N O P Q R S T U V W X Y Z