Guitaretab - guitar tabs
Song name
# A B C D E F G H I J K L M N O P Q R S T U V W X Y Z
Home / M / Misfits / Bullet tab

Misfits - Bullet tab

I think my version is easier than the others where your travling up and down the fret 
constantly. Sounds pretty accurate to me.

Verse
]------------------------------------------------------------|
]------------------------------------------------------------|
]---------------------------------------------------10-10----|
]-12-12-12-12-12-12-12-12-12-12-12-12-12-12--10-10--10-10-12:|
]-12-12-12-12-12-12-12-12-12-12-12-12-12-12--10-10--8--8--12:|
]-10-10-10-10-10-10-10-10-10-10-10-10-10-10--8--8---------10:|


Chorus
]------------------------------------------------------------|
]------------------------------------------------------------|
]------------------------------------------------------------|
]-12-12-12-12-12-12-12-12-12-12-12-12-12-12------------------|
]-12-12-12-12-12-12-12-12-12-12-12-12-12-12------------------|
]-10-10-10-10-10-10-10-10-10-10-10-10-10-10------------------|

]------------------------------------------------------------|
]------------------------------------------------------------|
]------------------------------------------------------------|
]-10-10-10-10-10-10-10-10-10-10-10-10-10-10------------------|
]-10-10-10-10-10-10-10-10-10-10-10-10-10-10------------------|
]-8--8--8--8--8--8--8--8--8--8--8--8--8--8-------------------|
[ Tab from: http://www.guitaretab.com/m/misfits/120369.html ]
]------------------------------------------------------------|
]------------------------------------------------------------|
]------------------------------------------------------------|
]-8-8-8-8-8-8-8-8--10-10-10-10-10-10-10-10-10----------------|
]-8-8-8-8-8-8-8-8--10-10-10-10-10-10-10-10-10----------------|
]-6-6-6-6-6-6-6-6--8--8--8--8--8--8--8--8--8-----------------|

]------------------------------------------------------------|
]------------------------------------------------------------|
]------------------------------------------------------------|
]-12-12-12-12-12-12-12-12-12-12-12-12------------------------|
]-12-12-12-12-12-12-12-12-12-12-12-12------------------------|
]-10-10-10-10-10-10-10-10-10-10-10-10------------------------|

Birdge
]------------------------------------------------------------|
]------------------------------------------------------------|
]-12-12-12-12-12-12-12-12------------------------------------|
]-12-12-12-12-12-12-12-12------------------------------------|
]-10-10-10-10-10-10-10-10------------------------------------|
]------------------------------------------------------------|

]------------------------------------------------------------|
]------------------------------------------------------------|
]------------------------------------------------------------|
]-12-12-12-12-12-12-12-12-12-12-12-12------------------------|
]-12-12-12-12-12-12-12-12-12-12-12-12------------------------|
]-10-10-10-10-10-10-10-10-10-10-10-10------------------------|

Outro
]------------------------------------------------------------|
]------------------------------------------------------------|
]-------10-10-----------10-10-----------10-10----------------|
]10-10--10-10-12:-10-10-10-10-12:-10-10-10-10-12-12-12-12----|
]10-10--8--8--12:-10-10-8--8--12:-10-10-8--8--12-12-10-10----|
]8--8---------10:-8--8--------10:-8--8--------10-10-10-10----|

Verse 3x
Chorus 1x
Verse 2x
Chorus 1x
Bridge 17x
Outro 1x
Related for Bullet tab
Bullet chords by Misfits