Song name
# A B C D E F G H I J K L M N O P Q R S T U V W X Y Z

Misfits - Hellbound tab

Band: Misfits
Song: Hellbound

Tabber: John Cukras
email: riffreaper@yahoo.com

Tuning: normal

Riff 1:
E-----------------------------------|
B-----------------------------------|
G-----------------------------------|
D-222222------77-55-----------------|
A-222222-5555-55-33-55-999999-------|
E-000000-3333-------33-777777 x's 4-|

Riff 2:
E-------------------------------------------------|
B-------------------------------------------------|
G-------------------------------------------------|
D-------------------------------------------------|
A-4-44444444-3-33333333-4-4444444-3-333-3-3-3-3-3-|
E-2-22222222-1-11111111-2-2222222-1-111-1-1-1-1-1-|
pm  ........   ........   .......   ... . . . . .

Riff 3:
E--------------------------|
B--------------------------|
G--------------------------|
D--------------------------|
A-5--3---------3-3-3-3-3-3-|
E-3--1  x's 4--1-1-1-1-1-1-|
pm             . . . . . .

Riff 1 x's 5

End:
E--------------------------|
B--------------------------|
G--------------------------|
D-222222------77-55--------|
A-222222-5555-55-33-55---5-|
E-000000-3333-------33---3-|
Tap to rate this tab
# A B C D E F G H I J K L M N O P Q R S T U V W X Y Z