Song name
# A B C D E F G H I J K L M N O P Q R S T U V W X Y Z

Misfits - Descending Angel tab

MISFITS - DESCENDING ANGEL
FAMOUS MONSTERS

E, B, G, D, A, E

Intro:
|-------------------------------------------------------------------|
|-------------------------------------------------------------------|
|.-----------------------------------------------------------------.|
|.-3-3-3-3-3-3-3-3-6-6-6-6-6-6-6-6---------------------------------.|
|--1-1-1-1-1-1-1-1-4-4-4-4-4-4-4-4-6-6-6-6-6-6-----3-3-3-3-3-3-3-3--|
|----------------------------------4-4-4-4-4-4-/13\1-1-1-1-1-1-1-1--|
                                           ...     ...............

|-------------------|
|-------------------|
|-------------------|
|-------------------|
|--3----------------|
|--1----------------|

Verse:
                                                            (Play 3x)
|-------------------------------------------------------------------|
|-------------------------------------------------------------------|
|.-----------------------------------------------------------------.|
|.-3-3-3-3-3-3-3-3-6-6-6-6-6-6-6-6---------------------------------.|
|--1-1-1-1-1-1-1-1-4-4-4-4-4-4-4-4-6-6-6-6-6-6-6-6-6-6-6-6-6-6-6-6--|
|----------------------------------4-4-4-4-4-4-4-4-4-4-4-4-4-4-4-4--|
                                                   ...............

|-------------------------------------------------------------------|
|-------------------------------------------------------------------|
|-------------------------------------------------------------------|
|--3-3-3-3-3-3-3-3-6-6-6-6-6-6-6-6----------------------------------|
|--1-1-1-1-1-1-1-1-4-4-4-4-4-4-4-4-6-6-6-6-6-6-6-6-3----------------|
|----------------------------------4-4-4-4-4-4-4-4-1----------------|

Chorus:
|-------------------------------------------------------------------|
|-------------------------------------------------------------------|
|.-----------------------------------------------------------------.|
|.-3-3-3-3-3-3-3-3-6-6-6-6-6-6-6-6---------------------------------.|
|--1-1-1-1-1-1-1-1-4-4-4-4-4-4-4-4-6-6-6-6-6-6-----3-3-3-3-3-3-3-3--|
|----------------------------------4-4-4-4-4-4-/13\1-1-1-1-1-1-1-1--|
                                           ...     ...............

|-------------------|
|-------------------|
|-------------------|
|-------------------|
|--3----------------|
|--1----------------|


|-------------------------------------------------------------------|
|-------------------------------------------------------------------|
|.-----------------------------------------------------------------.|
|.-3-3-3-3-3-3-3-3-6-6-6-6-6-6-6-6---------------------------------.|
|--1-1-1-1-1-1-1-1-4-4-4-4-4-4-4-4-6-6-6-6-6-6-----3-3-3-3-3-3-3-3--|
|----------------------------------4-4-4-4-4-4-/13\1-1-1-1-1-1-1-1--|
                                           ...     ...............

|-------------------|
|-------------------|
|-------------------|
|-------------------|
|--3-3-3-3-3--------|
|--1-1-1-1-1--------|
   .......

Verse:
                                                            (Play 3x)
|-------------------------------------------------------------------|
|-------------------------------------------------------------------|
|-------------------------------------------------------------------|
|--3-3-3-3-3-3-3-3-6-6-6-6-6-6-6-6----------------------------------|
|--1-1-1-1-1-1-1-1-4-4-4-4-4-4-4-4-6-6-6-6-6-6-6-6-6-6-6-6-6-6-6-6--|
|----------------------------------4-4-4-4-4-4-4-4-4-4-4-4-4-4-4-4--|
                                                   ...............

|-------------------------------------------------------------------|
|-------------------------------------------------------------------|
|-------------------------------------------------------------------|
|--3-3-3-3-3-3-3-3-6-6-6-6-6-6-6-6----------------------------------|
|--1-1-1-1-1-1-1-1-4-4-4-4-4-4-4-4-6-6-6-6-6-6-6-6-3----------------|
|----------------------------------4-4-4-4-4-4-4-4-1----------------|

Chorus:
|-------------------------------------------------------------------|
|-------------------------------------------------------------------|
|.-----------------------------------------------------------------.|
|.-3-3-3-3-3-3-3-3-6-6-6-6-6-6-6-6---------------------------------.|
|--1-1-1-1-1-1-1-1-4-4-4-4-4-4-4-4-6-6-6-6-6-6-----3-3-3-3-3-3-3-3--|
|----------------------------------4-4-4-4-4-4-/13\1-1-1-1-1-1-1-1--|
                                           ...     ...............
 (Play 2x)

|-------------------|
|-------------------|
|-------------------|
|-------------------|
|--3----------------|
|--1----------------|


|-------------------------------------------------------------------|
|-------------------------------------------------------------------|
|.-----------------------------------------------------------------.|
|.-3-3-3-3-3-3-3-3-6-6-6-6-6-6-6-6---------------------------------.|
|--1-1-1-1-1-1-1-1-4-4-4-4-4-4-4-4-6-6-6-6-6-6-----3-3-3-3-3-3-3-3--|
|----------------------------------4-4-4-4-4-4-/13\1-1-1-1-1-1-1-1--|
                                           ...     ...............

|-------------------|
|-------------------|
|-------------------|
|----------------3--|
|--3-3-3-3-3-3-3----|
|--1-1-1-1-1-1-1----|
   .............

Solo:
|-------------------------------------------------------------------|
|-------------------------------------------------------------------|
|-------------------------------------------------------------------|
|--/8~~~~~~~~-10~-11v~~~~~-11-10--11~~-10------------------8~~~~~~--|
|-------------------------------11-------11~~~~~~~~~~~~~-8----------|
|-------------------------------------------------------------------|


|-------------------------------------------------------------------------------------------|
|-------------------------------------------------------------------------------------------|
|-------------------------------------------------------------------------------------------|
|--10-10-10-10-11/13~~~~~~~~~~~-13-13-16p15p13-16p15p13-16p15p13-16p15p13-15v~~~~~~~~~~~\\--|
|-------------------------------------------------------------------------------------------|
|-------------------------------------------------------------------------------------------|


|-------------------------------------------------------------------|
|-------------------------------------------------------------------|
|-------------------------------------------------------------------|
|--8-7---8~~-7---8~~-7---8~~-7-----6-5---6~~-5---6~~-5---6~~-5------|
|------8-------8-------8-------8~~-----6-------6-------6-------6~~--|
|-------------------------------------------------------------------|


|-------------------------------------------------------------------|
|-------------------------------------------------------------------|
|-------------------------------------------------------------------|
|--4-3---4~~-3-----6~~-5---6~~-5-----8-7---8-7----------------------|
|------4-------4-6-------6-------6-8-----8-----8~~------------------|
|-------------------------------------------------18\\\\\\\\\\\\\\--|

Chorus:
|-------------------------------------------------------------------|
|-------------------------------------------------------------------|
|.-----------------------------------------------------------------.|
|.-3-3-3-3-3-3-3-3-6-6-6-6-6-6-6-6---------------------------------.|
|--1-1-1-1-1-1-1-1-4-4-4-4-4-4-4-4-6-6-6-6-6-6-----3-3-3-3-3-3-3-3--|
|----------------------------------4-4-4-4-4-4-/13\1-1-1-1-1-1-1-1--|
                                           ...     ...............

|-------------------|
|-------------------|
|-------------------|
|-------------------|
|--3----------------|
|--1----------------|


|-------------------------------------------------------------------|
|-------------------------------------------------------------------|
|.-----------------------------------------------------------------.|
|.-3-3-3-3-3-3-3-3-6-6-6-6-6-6-6-6---------------------------------.|
|--1-1-1-1-1-1-1-1-4-4-4-4-4-4-4-4-6-6-6-6-6-6-----3-3-3-3-3-3-3-3--|
|----------------------------------4-4-4-4-4-4-/13\1-1-1-1-1-1-1-1--|
                                           ...     ...............

|-------------------|
|-------------------|
|-------------------|
|-------------------|
|--3-3-3-3-3-3-3-3--|
|--1-1-1-1-1-1-1-1--|
   ...............

Outro:
                                                            (Play 3x)
|-------------------------------------------------------------------|
|-------------------------------------------------------------------|
|.-----------------------------------------------------------------.|
|.-3-3-3-3-3-3-3-3-6-6-6-6-6-6-6-6---------------------------------.|
|--1-1-1-1-1-1-1-1-4-4-4-4-4-4-4-4-6-6-6-6-6-6-6-6-3-3-3-3-3-3-3-3--|
|----------------------------------4-4-4-4-4-4-4-4-1-1-1-1-1-1-1-1--|


|-------------------------------------------------------------------|
|-------------------------------------------------------------------|
|-------------------------------------------------------------------|
|--3-3-3-3-3-3-3-3-6-6-6-6-6-6-6-6----------------------------------|
|--1-1-1-1-1-1-1-1-4-4-4-4-4-4-4-4-6-6-6-6-6-6-6-6-3~~~~~~~~~~~~~~--|
|----------------------------------4-4-4-4-4-4-4-4-1~~~~~~~~~~~~~~--|
                                                         (slows down)

|-------------------------------------------------------------------|
|-------------------------------------------------------------------|
|-------------------------------------------------------------------|
|--3~~~~~~~~~~~~~~~~~~~~~~~~~~~~~~~~~~~~~~~~~~~~~~~~~~~~~~~~~~~~~~--|
|--1~~~~~~~~~~~~~~~~~~~~~~~~~~~~~~~~~~~~~~~~~~~~~~~~~~~~~~~~~~~~~~--|
|-------------------------------------------------------------------|
Tap to rate this tab
# A B C D E F G H I J K L M N O P Q R S T U V W X Y Z