Song name
# A B C D E F G H I J K L M N O P Q R S T U V W X Y Z

Misfits - Scream tab

Scream
Misfits
Famous Monsters

Standard Tuning EAGDBE

e------------------------------------------------------------|
B------------------------------------------------------------|
G------------------------------------------------------------|
D------------------------------------------------------------|
A-/9~-4~/5~2~---/9~-4~-/5~---/9~-/4~/5~/2~---/9~-5~4~--------|
E------------------------------------------------------------|

Intro Riff 2
e------------------------------------------|
B------------------------------------------|
G-----------------------------7------------|
D-9--7--5----9--7--5----9--7--7----9--7--5-|
A-9--7--5----9--7--5----9--7--5----9--7--5-|
E-7--5--3----7--5--3----7--5-------7--5--3-|


Verse
e------------------------------------------|
B------------------------------------------|
G---------------------------7777-----------|
D-77777777-9999999-55555555-7777-7777777---|
A-77777777-9999999-55555555-5555-7777777---|
E-55555555-7777777-33333333------5555555---|

e-----------------------------------|
B-----------------------------------|
G-------------------7777------------|
D-99999999-55555555-7777-777777777--|
A-99999999-55555555-5555-777777777--|
E-77777777-33333333------555555555--|


Chorus pt1
e-------------------------|
B-------------------------|
G-------------------------|
D-9999999-7777777-5555555-|
A-9999999-7777777-5555555-|
E-7777777-5555555-3333333-|


e-------------------------|
B-------------------------|
G-------------------------|
D-9999999-7777777-5555555-|
A-9999999-7777777-5555555-|
E-7777777-5555555-3333333-|

Verse
E------------------------------------------|
B------------------------------------------|
G---------------------------7777-----------|
D-77777777-9999999-55555555-7777-7777777---|
A-77777777-9999999-55555555-5555-7777777---|
E-55555555-7777777-33333333------5555555---|

e-----------------------------------|
B-----------------------------------|
G-------------------7777------------|
D-99999999-55555555-7777-777777777--|
A-99999999-55555555-5555-777777777--|
E-77777777-33333333------555555555--|


Chorus pt1
e-------------------------|
B-------------------------|
G-------------------------|
D-9999999-7777777-5555555-|
A-9999999-7777777-5555555-|
E-7777777-5555555-3333333-|


e-------------------------|
B-------------------------|
G-------------------------|
D-9999999-7777777-5555555-|
A-9999999-7777777-5555555-|
E-7777777-5555555-3333333-|


Chorus pt2
e-------------------------|
B-------------------------|
G-----------------7777777-|
D-9999999-7777777-7777777-|
A-9999999-7777777-5555555-|
E-7777777-5555555---------|

Chorus pt1
e-------------------------|
B-------------------------|
G-------------------------|
D-9999999-7777777-5555555-|
A-9999999-7777777-5555555-|
E-7777777-5555555-3333333-|


e-------------------------|
B-------------------------|
G-------------------------|
D-9999999-7777777-5555555-|
A-9999999-7777777-5555555-|
E-7777777-5555555-3333333-|


Post Chorus
e-----------------------------|
B-----------------------------|
G-----------------------------|
D-55555555555-----------------|
A-55555555555-----------------|
E-33333333333-----------------| ...........

Verse
e------------------------------------------|
B------------------------------------------|
G---------------------------7777-----------|
D-77777777-9999999-55555555-7777-7777777---|
A-77777777-9999999-55555555-5555-7777777---|
E-55555555-7777777-33333333------5555555---|

e-----------------------------------|
B-----------------------------------|
G-------------------7777------------|
D-99999999-55555555-7777-777777777--|
A-99999999-55555555-5555-777777777--|
E-77777777-33333333------555555555--|

Bridge
e----------------------------------|
B----------------------------------|
G----------------------------------|
D-9-7-9--9-7-9--9-7-9--9-7-9--6-4--|
A-9-7-9--9-7-9--9-7-9--9-7-9--6-4--|
E-7-5-7--7-5-7--7-5-7--7-5-7--4-2--|


Chorus pt2
e-------------------------|
B-------------------------|
G-----------------7777777-|
D-9999999-7777777-7777777-|
A-9999999-7777777-5555555-|
E-7777777-5555555---------|


Bridge
e----------------------------------|
B----------------------------------|
G----------------------------------|
D-9-7-9--9-7-9--9-7-9--9-7-9--6-4--|
A-9-7-9--9-7-9--9-7-9--9-7-9--6-4--|
E-7-5-7--7-5-7--7-5-7--7-5-7--4-2--|
Tap to rate this tab
# A B C D E F G H I J K L M N O P Q R S T U V W X Y Z