Song name
# A B C D E F G H I J K L M N O P Q R S T U V W X Y Z

Misfits - The Hunger tab

Help us improve GuitareTab! Take a short survey!
-------------------------------------------------------------------------------
			     The Hunger - Misfits
-------------------------------------------------------------------------------
Tabbed by: Astrozombie138
email: astrozombie138@gmail.com

Tuning: 1/2 step down

(intro) All these notes are Natural Harmonics. Do the slide slowly and do tremolo
picking.
eb|---------------------------------------------------------------------------|
Bb|---------------------------------------------------------------------------|
Gb|---------------------------------------------------------------------------|
Db|---------------------------------------------------------------------------|
Ab|---------------------------------------------------------------------------|
Eb|--7-7-7-7-7-7-7-7-7-7-7-7-7-7-7-7-7/10-------------------------------------|

(riff 1)
eb|----------------------------|
Bb|----------------------------|
Gb|----------------------------|
Db|----------------------------|
Ab|--2--5--2--8--7--5----------|
Eb|--0--3--0--6--5--3----------|
    

(riff 2)
eb|---------------------------------------------------------------------------|
Bb|---------------------------------------------------------------------------|
Gb|---------------------------------------------------------------------------|
Db|---------------------------------------------------------------------------|
Ab|--9-9-9-9-9-9-9-9-9-9-9--5--5--5--5--5--2--2--2--2--2----------------------|
Eb|--7-7-7-7-7-7-7-7-7-7-7--3--3--3--3--3--0--0--0--0--0----------------------|

(riff 3)
eb|---------------------------------------------------------------------------|
Bb|---------------------------------------------------------------------------|
Gb|---------------------------------------------------------------------------|
Db|---------------------------------------------------------------------------|
Ab|--7:--9-7-5:-/---5:--7-5-4--/-\--------------------------------------------|
Eb|--5:--7-5-3:-/---3:--5-3-2--/-\--------------------------------------------|

(riff 4)
eb|---------------------------------------------------------------------------|
Bb|---------------------------------------------------------------------------|
Gb|---------------------------------------------------------------------------|
Db|---------------------------------------------------------------------------|
Ab|--2--2-5--2-2-2--8---7--2-2------------------------------------------------|
Eb|--0--0-3--0-0-0--6-0-5--0-0------------------------------------------------|
(PM)    .    . . .    .    . .

(outro)
eb|---------------------------------------------------------------------------|
Bb|---------------------------------------------------------------------------|
Gb|---------------------------------------------------------------------------|
Db|------------------------------2--------------------------------------------|
Ab|--2--2-5:--8:--7--5:---2::----2--------------------------------------------|
Eb|--0--0-3:--6:--5--3:---0::----0--------------------------------------------|
(PM)    .


order:
intro        1x
riff 1       4x
riff 2       3x
riff 3       1x
riff 1       4x
riff 2       3x
riff 3       1x
riff 1       4x(only single notes- Pinched harmonics)
riff 4       3x
outro        1x

| PM Palm Mute
| :  Let ring
| /  slide up
| \  slide down
| h  hammer-on
| p  pull-off
| ~  vibrato
| +  harmonic
| x  Mute note
===============================================================================
Related for The Hunger tab