Song name
# A B C D E F G H I J K L M N O P Q R S T U V W X Y Z

Misfits - Attitude tab

----------------------------------------------------------------------------
			     Attitude - The Misfits
----------------------------------------------------------------------------
Tabbed by:Eduardo
*note*
Yeah I know, theres a ton of other misfits tabs already. But i'm bored and 
doing this is way more fun than doing nothig all day.

I noticed on other tabs the solo is played differently.
This is the way I play the solo, it sounds a lot more better to me anyway.

Tuning:Standard

Intro
e|----------------|
B|----------------|
G|----------------|
D|--12------------|
A|--12--x32-------|
E|--10------------|

Verse
e|------------------------------------|
B|------------------------------------|
G|--------12--------------------------|
D|-12-----12--x8----------------------|
A|-12--x8-10--------------------------|
E|-10---------------------------------|

Chorus
e|--------------------------------------------------------|
B|--------------------------------------------------------|
G|-11--------12-------11------12------14------------------|
D|-11--x16---12--x16--11-x16--12--x8--14--x8--------------|
A|-9---------10-------9-------10------12------------------|
E|--------------------------------------------------------|


e|----------------------------------------|
B|----------------------------------------|
G|---------14-----------------------------|
D|-12------14--x8---do this 4 times-------|
A|-12--x8--12-----------------------------|
E|-10-------------------------------------|

Chorus

Solo
e|--10--------12--------------------------|
B|--10----x8--12--------------------------|
G|--12b14-----14b16--x8----do this 4 times|
D|----------------------------------------|
A|----------------------------------------|
E|----------------------------------------|


Verse 2 times
e|------------------------------------|
B|------------------------------------|
G|--------12--------------------------|
D|-12-----12--x8----------------------|
A|-12--x8-10--------------------------|
E|-10---------------------------------|


outro
e|----------------|
B|----------------|
G|----------------|
D|--12------------|
A|--12--x32-------|
E|--10------------|


Attitude! 
You got some fucking attitude!
I cant believe what you said to me you got some attitude

Inside your feeble brain theirs probably a whore
If you dont shut your mouth your gonna feel the floor

Attitude!
Oh what do you got
Oh baby attitude
Oh what do you got
Oh baby attitude
Attitude

Inside your feeble brain theirs probably a whore
If you dont shut your mouth your gonna feel the floor

Attitude! 
You got some fucking attitude!
I cant believe what you said to me you got some attitude
Attitude! 
You got some fucking attitude!
I cant believe what you said to me you got some attitude



| /  slide up
| \  slide down
| h  hammer-on
| p  pull-off
| ~  vibrato
| +  harmonic
| x  Mute note
===========================================================================
Tap to rate this tab
# A B C D E F G H I J K L M N O P Q R S T U V W X Y Z