Guitaretab - guitar tabs
Song name
# A B C D E F G H I J K L M N O P Q R S T U V W X Y Z

Misfits - Hybrid Moments tab

INTRO/CHORUS

E|----------------------------------------------|
B|----------------------------------------------|
G|------------------------8---------------------|
D|---12------9------5-----8-x8--12--------------|
A|---12X16--9X16--5-X8--6-----12-X16----------|
E|---10------7------3-----------10--------------| X2

VERSE  0:21

E|----------------------------------------------|
B|----------------------------------------------|
G|----------------------7-----------------------|
D|---9-----7------5-----7-x8--7-----5-----7-----|
A|---9-X8--7-X16--5-X8--5-----7-X8--5-X8--7-X8--|
E|---7-----5------3-----------5-----3-----5-----|

CHORUS  0:31

E|----------------------------------------------|
B|----------------------------------------------|
G|------------------------8---------------------|
D|---12------9------5-----8-x8--12--------------|
A|---12X16--9X16--5-X8--6-----12-X16----------|
E|---10------7------3-----------10--------------| X2
[ Tab from: http://www.guitaretab.com/m/misfits/32716.html ]
VERSE  0:50

E|----------------------------------------------|
B|----------------------------------------------|
G|----------------------7-----------------------|
D|---9-----7------5-----7-x8--7-----5-----7-----|
A|---9-X8--7-X16--5-X8--5-----7-X8--5-X8--7-X8--|
E|---7-----5------3-----------5-----3-----5-----|


CHORUS  0:59

E|----------------------------------------------|
B|----------------------------------------------|
G|------------------------8---------------------|
D|---12------9------5-----8-x8--12--------------|
A|---12X16--9X16--5-X8--6-----12-X16----------|
E|---10------7------3-----------10--------------| X2

OUTRO  1:18

E|------------------------------------------------|
B|------------------------------------------------|
G|------------------------------------------------|
D|-12------9------55-5-5-5-5--7-7-7-7-7-7---12~~-|
A|-12X16--9X16--5-5-5-5-5-5--7-7-7-7-7-7---12~~-|
E|-10------7------3-3-3-3-3-3--5-5-5-5-5-5---10~~-|
Related for Hybrid Moments tab