Song name
# A B C D E F G H I J K L M N O P Q R S T U V W X Y Z

Mission Of Burma - Red tab

Capo on the 3rd fret. First tab... there is no Frank Bell on here, so I decided
to ear tab it and put it on. I think this is the way that Frank plays it, but I'm not sure. Enjoy!

Intro:

     Em                 Am                         G               C#

-------3~~~~~~~~~~------------3-----------6~~~~~~~~~~------10~~~~~~~~~~|
-------3~~~~~~~~~~-----3h4p3----5---------6~~~~~~~~~~------10~~~~~~~~~~|
-------3~~~~~~~~~~----------------5-------7~~~~~~~~~~------11~~~~~~~~~~|
-------5~~~~~~~~~~---5-------5------------8~~~~~~~~~~------12~~~~~~~~~~|
----5--5~~~~~~~~~~-3-------------------8--8~~~~~~~~~~---12-12~~~~~~~~~~|
--3----3~~~~~~~~~~-------------------6----6~~~~~~~~~~-10---10~~~~~~~~~~|
Verse:

     Em x8           Am x8                  G x8                 C# x8

Strumming pattern: d,d,d/u,u/d/u/d

Chorus: 

           C                                           Dsus2                              Em
-----3------------------3-----------------3--------------3-------------|
-----4-------------3h10-10----------------3--------------10------------|
-----3-------------3h10-10----------------3--------------10------------|
-3h5-5-------------3h10-10------------3h5-5--------------10------------|
-3h6-6------------------3-------------3h5-5--------------3-------------|
-----3------------------3-----------------3--------------3-------------|
d,d,d/u,u/d/u/d               d,d,d/u,u/d/u/d            d,d,d/u,u/d/u/d     d,d,d/u,u/d/u/d

Verse:

     Em x8            Am x8                   G x8                  C# x8

Strumming pattern: d,d,d/u,u/d/u/d


Chorus: 

           C                                           Dsus2                              Em
-----3------------------3-----------------3--------------3-------------|
-----4-------------3h10-10----------------3--------------10------------|
-----3-------------3h10-10----------------3--------------10------------|
-3h5-5-------------3h10-10------------3h5-5--------------10------------|
-3h6-6------------------3-------------3h5-5--------------3-------------|
-----3------------------3-----------------3--------------3-------------|
d,d,d/u,u/d/u/d               d,d,d/u,u/d/u/d            d,d,d/u,u/d/u/d     d,d,d/u,u/d/u/d


Outro:(This is complicated, but you can figure it out by listening to song and it
will correspond well)
   Em
-3-------3---3-xx-3----3-----------------------------------------------|
-3-------4---4-xx-3h10-10----------------------------------------------|
-3-------3---3-xx-3h10-10----------------------------------------------|
-5-------3h5-5-xx-3h10-10----------------------------------------------|
-5-------3h6-6-xx-3----3-----------------------------------------------|
-3-------3---3-xx-3----3-----------------------------------------------|
 d,d,d/u,u

Chorus:(Play it softer to match how it is in the end of the song). 

           C                                           Dsus2                              Em
-----3------------------3-----------------3--------------3-------------|
-----4-------------3h10-10----------------3--------------10------------|
-----3-------------3h10-10----------------3--------------10------------|
-3h5-5-------------3h10-10------------3h5-5--------------10------------|
-3h6-6------------------3-------------3h5-5--------------3-------------|
-----3------------------3-----------------3--------------3-------------|
d,d,d/u,u/d/u/d               d,d,d/u,u/d/u/d            d,d,d/u,u/d/u/d     d,d,d/u,u/d/u/d

You can find this song on Youtube at Frank Bell's channel, Faure45, or on his EP,
On Passion and Reason, on iTunes. Questions and concerns, contact my AIM at natethegreat505.

http://www.frankbell.net/
Tap to rate this tab
# A B C D E F G H I J K L M N O P Q R S T U V W X Y Z