Song name
# A B C D E F G H I J K L M N O P Q R S T U V W X Y Z

Mission Of Burma - Mica tab

-----------------------------------------------------------------------------
                 MICA - Mission Of Burma
-----------------------------------------------------------------------------
Tabbed by: N3WW4V3N1NJ4
Email: thejediguitarist@gmail.com

Tuning: Standard

e|-------------0-|
B|-----------0---|
G|--------0------|
D|-----0---------|  x5
A|--0------------|
E|---------------|

Increase the speed every time you repeat the pattern. It's that easy.
Tap to rate this tab
 
# A B C D E F G H I J K L M N O P Q R S T U V W X Y Z