Song name
# A B C D E F G H I J K L M N O P Q R S T U V W X Y Z

Mitchell Kim - Rockland Wonderland tab

KIM MITCHELL
			    ROCKLAND   WONDERLAND


intro.
------------------------------------------------------------------------
-------------------------------------------------------------------5----
-------------------------------------------------------------------5--3-
----------------------------------------------------------------------5-
---------1-1-1-1---------3-3-3-3---------1-1-1-1-s5-5-5-5-3-3-3-3-------
-3-3-3-3---------1-1-1-1---------3-3-3-3--------------------------------
					                         
         Bb            F               Gm                 Bb
Close companions with no deep meaning, here's an open suggestion:
         Dm7           C
are you all in for some dreaming?


----3----------------------3--------------------------------------------
3h6---6----------------3h6---6--------------6------5--3s----------------
------5--------5--5----------5--------------5------5--3sdown------------
---------------2--5-----------------------------------------------------
------------------------------------------------------------------------
-----------1------------------------------3------3----------------------
(^^^ i find it easiest if i barre the whole wack of strings...)

Gm7       Bb              F         C  Gm7       Bb
Close companions in the concert bowl, we open our hearts
Dmn7            C
we let out the soul


solo (the beginning...)

E--16--16--16--16--16b17-----16---13---13\---13--13--11--13b14----13--11-
------------------------------------------------------------------------
------------------------------------------------------------------------

E13b14----13-11-13b14----13--11---------------11--11-11\-11-11-11-13b14---
A---------------------------------13---11-11-----------------------------
------------------------------------------------------------------------

E 13--11--10-11--------------------------------------------------------

followed by some really tough hammering and pulling off
Tap to rate this tab
# A B C D E F G H I J K L M N O P Q R S T U V W X Y Z