Song name
# A B C D E F G H I J K L M N O P Q R S T U V W X Y Z

Mllcheesecake - Worlds Apart tab

Intro.
-0-0h3----|
--2---2---|
----------|  x4
----------|
----------|
----------|

Verse. Starts with little drums then it comes in gradual but this is played until the chorus.
-0h3-3p0h3-0h3-0s8-8-8-7-0h3-3p0h3-0h3-0s7-7-7-7wb-|
-2---2-----2---2-----------------------------------|
---------------------------------------------------|
---------------------------------------------------|
---------------------------------------------------|
---------------------------------------------------|

-0h3-3p0h3-0h3-0s8-8-8-7-0h3-3p0-3p0-3p0-3p0-|
-2---2-----2---2---------2---2---2---2---2---|
---------------------------------------------|
---------------------------------------------|
---------------------------------------------|
---------------------------------------------|

Rotate between those two things until chorus.

Chorus.
-----------------5-5-5-5-5-5-------3-3-3-7-7-7---------|
-3-3-3-3s5-5-5-5-7-7-7-7-7-7-3-3-3-5-5-5-9-9-9-5s7-7-7-|
-5-5-5-5s7-7-7-7-------------5-5-5-------------x-x-x-x-|
-----------------------------------------------7s9-9-9-|
-------------------------------------------------------|
-------------------------------------------------------|

-----------------5-5-5-5-3-3-----------------------3-2-|
-3-3-3-3s5-5-5-5-7-7-7-7-5-5-3-3-3-3s5-5-5-5s7-7-7-5-4-|
-5-5-5-5s7-7-7-7-------------5-5-5-5s7-7-7-7s9-9-9-----|
-------------------------------------------------------|
-------------------------------------------------------|
-------------------------------------------------------|
This is All play only once.

Repeat verse.

Bridge.
-0-0-0-3wb-0-0-0-0--xx------|
-2-2-2-----2-2-2-2-7xx7\----|
-------------------9xx9\----|   x4
----------------------------|
----------------------------|
----------------------------|

Solo.
--------------------------------------------------|
--------------------------------------------------|
--------------------------------------------------|
------17-----17-----17---------12-----12-----12---|
-20p17--20p17--20p17--20--15p12--15p12--15p12--15-|
--------------------------------------------------|

--------------------------------------------|
--------------------------------------------|
--------------------------------------------|
------14-----14-----14--------9----9----9---|
-17p14--17p14--17p14--17--12p9-12p9-12p9-12-|
--------------------------------------------|

Whole thing played 3 times but the 4th time is a little bit different.
--------------------------------------------------|
--------------------------------------------------|
--------------------------------------------------|
------17-----17-----17---------12-----12-----12---|
-20p17--20p17--20p17--20--15p12--15p12--15p12--15-|
--------------------------------------------------|

--------------------------------------------------|
--------------------------------------------------|
--------------------------------------------------|
------14-----14-----14---------16-----16-----16---|
-17p14--17p14--17p14--17--19p16--19p16--19p16--19-|
--------------------------------------------------|

Chorus.

Verse.


There are alot of palm mutes in this song. You have to just listen for them.
Tap to rate this tab
# A B C D E F G H I J K L M N O P Q R S T U V W X Y Z