Song name
# A B C D E F G H I J K L M N O P Q R S T U V W X Y Z

Moi Dix Mois - Prophet tab

Tuning : Standard (EADGBe)

INTRO (x2)

------------------                     --------|
------------------                     --------|
------------------                     --------|
-(5)(5)------(6)(6)  <= Optional notes --------|
--5--5--------6--6                     ------2-|
--3--3--------4--4                     ---3h4--|
Let ring                                     ......

FAST RIFF (Palm-muted)

------------------------------------------------------------|
------------------------------------------------------------|
------------------------------------------------------------|        (x2)
------------------------------------------------------------|
-------------11111111------------------2-222-2222222--------|
-333333333333----------4-444-444-444-34---------------------|

------------------------------------|
------------------------------------|
------------------------------------|
--------------------------(6)-------|
-222------<= Not sure !----6------2-|
---0-----------------------4---3h4--|
   ...................     ....    ....<= Let ring


SECOND FAST RIFF (Palm-muted - Not sure about the rythm, so listen to the song carefully !)

------------------------------------------------------------|
------------------------------------------------------------|
------------------------------------------------------------|
------------------------------------------------------------|
------------------------------------------------------------|
-00000000[...]33333333[...]4-4444444-4444444-444444[...]333-|
Tap to rate this tab
 
# A B C D E F G H I J K L M N O P Q R S T U V W X Y Z