Song name
# A B C D E F G H I J K L M N O P Q R S T U V W X Y Z

Moi Dix Mois - Lamentful Miss tab

Help us improve GuitareTab! Take a short survey!

e|-----------------------|-------------------------------------------|
b|-----------------------|-------------------------------------------|
g|-----------------------|-------------------------------------------|
d|-7-8-9-10-12-10-9-8-7--|-------------------------------------------|
a|-7-8-9-10-12-10-9-8-7--|7--6--9-7--6--9-7--6--9-7-6-7-9-10-7h9p7-6-|
e|-5-6-7--8-10--8-7-6-5--|-00-00-0-00-00-0-00-00---------------------|


e|---------------------------------------|----------------------------|
b|---------------------------------------|----------------------------|
g|---------------------------------------|----------------------------|
d|---------------------------------------|----------------------------|
a|-7--6--9-7--6--9-7--6--9-7-6-7-9-10~-6-|7-7-7-6-7-8-8-8-9-9-9-10-10-|
e|--00-00-0-00-00-0-00-00----------------|5-5-5-4-5-6-6-6-7-7-7--8--8-|
                                                  pm..................


e|------------|--------------------|
b|--2 times---|--------------------| 2 times
g|------------|--------------------|
d|-9-9-7-10-9-|--------------------|
a|7-7---9-----|-------7--------7-9-|
e|------------|0-0--0-5-0-0--0-5-7-|




Related for Lamentful Miss tab