Song name
# A B C D E F G H I J K L M N O P Q R S T U V W X Y Z

Moke - Another Weekend tab

t. See http://www.olga.net/faq/ for more information.                     #
#-----------------------------------------------------------------------------#

Date: Sun, 16 Apr 2000 14:18:25 -0400
From: KidCisco33@aol.com
Subject: m/moke/another_weekend.tab

Song:  Another Weekend
Artist:  Moke
Album:  Superdrag/Moke
Tabbed by:  Tyler Christesen (KidCisco33@aol.com)

*Verse* Clean
E|----------------||---------
B|----------------||---------
G|---------10----o||--------- 
D|----------8----o||---------
A|-/7--5----8-----||---------
E|----------6-----||-0--3--5-   <---right before chorus

*Chorus* Distortion
E|--------------------
B|--------------------
G|--------------------
D|--------------------
A|-/7-5---------------
E|------0-5-3-5-3-5-6-

*Verse*

*Chorus*

*Interlude/Bridge/Whatever*
E|---------
B|---------
G|-------7-
D|-2--2--7-
A|-2--2--5-
E|-0--0--5-

*Verse*  With Morello-esque solo

*Chorus*



*I/B/W*

*Verse*


-Tyler-
Tap to rate this tab
 
# A B C D E F G H I J K L M N O P Q R S T U V W X Y Z