Song name
# A B C D E F G H I J K L M N O P Q R S T U V W X Y Z

Moke - Down tab

Help us improve GuitareTab! Take a short survey!
DOWN --  by MOKE

Here are the basic riffs.  The crunchy parts 
are variations of the clean stuff, once you 
get these down (pun intended!) the crunch stuff
should be self-evident...  
 
Basic chords are A, G, and D.  
 
 
INTRO GUITAR RIFF  (4x) 
--0----------------- 
-------------------- 
----2--------2-0---- 
------5--4-5-----/5- 
-0------------------ 
-------------------- 
/ = slide up 
 
 
W/ VOCAL INTRO 
---0--------------------0---------------- 
----------------------------------------- 
-----2--------2-0----------2-----0------- 
-------5--4-5----/5----------0-2---2-0--- 
-0--------------------0----------------3- 
----------------------------------------- 
 
 
MAIN RIFF 
------------------ 
------------------ 
----------0--0---- 
-2-2--0-2---4-4-0- 
-0-0-------------- 
------------------ 
 
 
EMBELLISHED MAIN RIFF 
----------------------- 
----------------------- 
----------0--0-2-0----- 
-2-2--0-2---4------4-0- 
-0-0------------------- 
----------------------- 
 
 
TURNAROUND 
------------------- 
------------------- 
----------0-------- 
-2-2--0-2---2-0---- 
-0-0------------3-- 
------------------- 
 
 
CRUNCH ONLY RIFF 
------------------ 
------------------ 
------------------ 
-2-2-------5------ 
-0-0--5-7--5------ 
------------------ 

Still working out the exact chords to the Bridge 
("feel it in your bones...") but they are essentially 
just A7, G, and D in various inversions. 
Related for Down tab