Song name
# A B C D E F G H I J K L M N O P Q R S T U V W X Y Z

Moneen - The Frightening Reality Of The Fact That We Will All Have To Grow Up And Settle Down One Day tab

Intro


Guitar 1


e --15p0-14/22-12h15-19p0-15----14/22-12h15-19p0-15----14/22-12h15-19p0-15~---------
B ---------------------------12---------------------12------------------------------
G ----------------------------------------------------------------------------------
D ----------------------------------------------------------------------------------
A ----------------------------------------------------------------------------------
E ----------------------------------------------------------------------------------


Alternatively; the first part to the intro can be played like this:


e ----------22-------19p0----------22-------19p0----------22-------19p0-------------
B --20p0-19----17h20------20----19----17h20------20----19----17h20------20~---------
G ---------------------------16---------------------16------------------------------
D ----------------------------------------------------------------------------------
A ----------------------------------------------------------------------------------
E ----------------------------------------------------------------------------------




Guitar 1     -     00:04

This is played simultaneously with the 2nd guitar.

e --------------7p0--------------7p0--------------7p0--------------7p0--------------
B --8p0-7p0----------8p0-7p0----------8p0-7p0----------8p0-7p0----------------------
G ----------7h9--------------7h9--------------7h9--------------7h9------------------
D ----------------------------------------------------------------------------------
A ----------------------------------------------------------------------------------
E ----------------------------------------------------------------------------------

e --------7----------------7----------------7----------------7----------------------
B --8p0-7-----8p7----8p0-7-----8p7----8p0-7-----8p7----8p0-7-----8p7----------------
G ----------9-----9----------9-----9----------9-----9----------9------9-------------
D ----------------------------------------------------------------------------------
A ----------------------------------------------------------------------------------
E ----------------------------------------------------------------------------------

e --------------7p0--------------7p0--------------7p0--------------7p0--------------
B --8p0-7p0----------8p0-7p0----------8p0-7p0----------8p0-7p0----------------------
G ----------7h9--------------7h9--------------7h9--------------7h9------------------
D ----------------------------------------------------------------------------------
A ----------------------------------------------------------------------------------
E ----------------------------------------------------------------------------------

e --8-----7-----10----8-----7-----10----10-----10-----10~---------------------------
B ----------------------------------------------------------------------------------
G ----7h9---7h9----7----7h9---7h9----7-----7h9----7h9-------------------------------
D ----------------------------------------------------------------------------------
A ----------------------------------------------------------------------------------
E ----------------------------------------------------------------------------------


Guitar 2     -     00:04


e -------------------------------------------------------------------------------------------
B -------------------------------------------------------------------------------------------
G ----------------------------------------------999999-77-111111111111--------------------
D --555555555555-7777-9999999999999999-10101010-xxxxxx-xx-xxxxxxxxxxx--9999999999999999---
A --555555555555-7777-9999999999999999-10101010-777777-55-9-9-9-9-9-9--xxxxxxxxxxxxxxxx---
E --333333333333-5555-7777777777777777-8-8-8-8-------------------------7777777777777777---

e -------------------------------------------------------------------------------------------
B -------------------------------------------------------------------------------------------
G -------------------------------------------------------------------------------------------
D --555555555555-7777-9999999999999999-10101010----------------------------------------------
A --555555555555-7777-9999999999999999-10101010----------------------------------------------
E --333333333333-5555-7777777777777777-8-8-8-8-----------------------------------------------

e -------------------------------------------------------------------------------------------
B -------------------------------------------------------------------------------------------
G ---------------------------------------------------7777-9999-------------------------------
D --101010101010101010101010101010101010101010101010-xxxx-xxxx-------------------------------
A --101010101010101010101010101010101010101010101010-5555-7777-------------------------------
E --8-8-8-8-8-8-8-8-8-8-8-8-8-8-8-8-8-8-8-8-8-8-8-8------------------------------------------





Legend:

p = pull off
h = hammer on
~ = let note ring
x = mute
Tap to rate this tab
# A B C D E F G H I J K L M N O P Q R S T U V W X Y Z