Song name
# A B C D E F G H I J K L M N O P Q R S T U V W X Y Z

Monkeysoop - Seven tab

Band - Monkeysoop
Song - Seven
CD - Counterclockwise

Part-1
e-----------------------------------------------------------|
b-----------------------------------------------------------|
g-----------------------------------------------------------|
d-----------------------------------------------------------|
a--3-2----3-2----3-2----3-2-----2--2--2--2--2--2--2--2------|
e--1-0----1-0----1-0----1-0-----0--0--0--0--0--0--0--0------|


Part-2
e------------------------------------------------------------|
b------------------------------------------------------------|
g------------------------------------------------------------|
d-1h2p1p0--------1h2p1p0--------1h2p1p0--------1h2p1p0--5----|
a--------2p0-3p0---------2p03p0---------2p03p0---------------|
e------------------------------------------------------------|

Part-3
e--------12----------------------------|
b--------12----------------------------|
g--------------4p2p0-------------------|
d--------------------4p2p0-------------|
a---22---------------------4p2p0-------|
e---00---------------------------------|

Bass intro
Part-1
Part-2 x4
Part-3 x4
Bass intro
Part-1
Part-2 x4
Part-3 x4
Drum solo
Bass solo
Bass intro
Part-1
Part-2 x4
Part-3 x4
Part-3 x4
Tap to rate this tab
 
# A B C D E F G H I J K L M N O P Q R S T U V W X Y Z