Guitaretab - guitar tabs
Song name
# A B C D E F G H I J K L M N O P Q R S T U V W X Y Z

Mono - Kidnapper Bell tab

I'm just posting this simple tablature for the Japanese instrumental post-rock band
called Mono. I would love if more people added more.

Two guitars, both use delay throughout most of the songs. the settings on my Boss
DD-6 to match this sound are:
E.Level 9, F.Back 4, D.Time 5, Mode 800ms.

Intro:

Yoda guitar
e|-------------------------------------------------|
b|-------------------------------------------------|
g|-------------------------------------------------|
d|-------------------------------------------------|
a|-55555-55555-44444-44444-55-55-55-55-44-44-44-44-|
e|---------------------------5-----5-----5-----5--|

then the next guitarist (Taka) plays this very fast
Taka guitar
e|------------------------------------------|
b|------------------------------------------|
g|------------------------------------------|
d|-9999999999--11-12-12-12-12-12 repeat...--|
a|----------------10-10-10-10-10------------|
e|------------------------------------------|
continued...

e|---------------------------|
b|---------------------------|
g|---------------77777-77777-|
d|-99999-9999--7-55555-55555-|
a|---------------55555-55555-|
e|---------------------------|

continue playing this with the delay, then eventually sneak up with some loud distortion.

then Taka plays these chords very loud...
[ Tab from: http://www.guitaretab.com/m/mono/68376.html ]
e|-------------------------------------------------|
b|-------------------------------------------------|
g|-11-11-11-11-11-11-11-12-12-12-12-12-12-12-12-12-|
d|-9--9--9--9--9--9--11-12-12-12-12-12-12-12-12-12-|
a|-------------------------------------------------|
e|-------------------------------------------------|

which developes into this:

e|----------------------------------------------|
b|----------------------------------------------|
g|-11-11-11-11-11-14-14-14-14-14-12-12-12-12-12-|
d|-9--9--9--9--9--12-12-12-12-12-12-12-12-12-12-|
a|----------------------------------------------|
e|----------------------------------------------|

outro:

e|-------------------------------------------------------------------|
b|-------------------------------------------------------------------|
g|-------------------------------------------------------------------|
d|-12-12-12-11-11-12-14-14-12-11-11-12-9-9-9-7-7-7-7-5-5-5-5-4-4-4-4-|
a|-------------------------------------------------------------------|
e|-------------------------------------------------------------------|

e|----------------------------------------------------------------------|
b|----------------------------------------------------------------------|
g|-------------------------------------11-11-11-9-9-9-9-7-7-7-7-6-6-6-6-|
d|-12-12-12-11-11-12-14-14-12-11-11-12----------------------------------|
a|----------------------------------------------------------------------|
e|----------------------------------------------------------------------|

this isn't perfect, but I just wanted to set up atleast one tab for this brilliant band. 
I didn't have much stuff on Yoda's guitar, so I hope other people can figure some of 
stuff out.
Related for Kidnapper Bell tab