Song name
# A B C D E F G H I J K L M N O P Q R S T U V W X Y Z

Monster Magnet - Slut Machine tab

-------------------------------------------------------------------------------
			     SLUT MACHINE - Monster Magnet
-------------------------------------------------------------------------------
Tabbed by: Ruben Flores
Email: atomic-garden@hotmail.com

Tuning: Half-Step Down

0:18
eb|------------------------------------|
Bb|------------------------------------|
Gb|------------------------------------|
Db|------------------------------------|  x2
Ab|--------------------------------5-3-|
Eb|3-0--0--0-3-0-3-0-3-0--0--0-3-3-----|

0:27
eb|------------------------------------|
Bb|------------------------------------|
Gb|------------------------------------|
Db|5-2--2--2-5---5---5-2--2--2-5-5-7-5-|  x6
Ab|5-2--2--2-5-0-5-0-5-2--2--2-5-5-5-3-|
Eb|3-0--0--0-3-0-3-0-3-0--0--0-3-3-----|

0:53
eb|------------------------------------------------------------------|
Bb|------------------------------------------------------------------|
Gb|------------------------------------------------------------------|
Db|7-7--7-7-7--7--7-5-5--5-5-5--5--5-2-2--2-2-2--5-4-2-2--2-2-2--4-5-|
Ab|5-5--5-5-5--5--5-3-3--3-3-3--3--3-2-2--2-2-2--5-4-2-2--2-2-2--4-5-|
Eb|----------------------------------0-0--0-0-0--3-2-0-0--0-0-0--2-3-|

eb|----------------------------------|
Bb|----------------------------------|
Gb|----------------------------------|
Db|-7-7--7-7-7--7--7-5-5--5-5-5--7-5-|
Ab|-5-5--5-5-5--5--5-3-3--3-3-3--5-3-|
Eb|----------------------------------|

1:06
eb|------------------------------------|
Bb|------------------------------------|
Gb|------------------------------------|
Db|5-2--2--2-5---5---5-2--2--2-5-5-7-5-|  x6
Ab|5-2--2--2-5-0-5-0-5-2--2--2-5-5-5-3-|
Eb|3-0--0--0-3-0-3-0-3-0--0--0-3-3-----|

1:32
eb|------------------------------------------------------------------|
Bb|------------------------------------------------------------------|
Gb|------------------------------------------------------------------|
Db|7-7--7-7-7--7--7-5-5--5-5-5--5--5-2-2--2-2-2--5-4-2-2--2-2-2--4-5-|
Ab|5-5--5-5-5--5--5-3-3--3-3-3--3--3-2-2--2-2-2--5-4-2-2--2-2-2--4-5-|
Eb|----------------------------------0-0--0-0-0--3-2-0-0--0-0-0--2-3-|

eb|----------------------------------|
Bb|----------------------------------|
Gb|----------------------------------|
Db|-7-7--7-7-7--7--7-5-5--5-5-5--7-5-|
Ab|-5-5--5-5-5--5--5-3-3--3-3-3--5-3-|
Eb|----------------------------------|



1:57
eb|------------------------------------|
Bb|------------------------------------|
Gb|------------------------------------|
Db|------------------------------------|  x2
Ab|--------------------------------5-3-|
Eb|3-0--0--0-3-0-3-0-3-0--0--0-3-3-----|

2:05
eb|------------------------------------|
Bb|------------------------------------|
Gb|------------------------------------|
Db|5-2--2--2-5---5---5-2--2--2-5-5-7-5-|  x6
Ab|5-2--2--2-5-0-5-0-5-2--2--2-5-5-5-3-|
Eb|3-0--0--0-3-0-3-0-3-0--0--0-3-3-----|

2:23
eb|------------------------------------------------------------------|
Bb|------------------------------------------------------------------|
Gb|------------------------------------------------------------------|
Db|7-7--7-7-7--7--7-5-5--5-5-5--5--5-2-2--2-2-2--5-4-2-2--2-2-2--4-5-|
Ab|5-5--5-5-5--5--5-3-3--3-3-3--3--3-2-2--2-2-2--5-4-2-2--2-2-2--4-5-|
Eb|----------------------------------0-0--0-0-0--3-2-0-0--0-0-0--2-3-|

eb|----------------------------------|
Bb|----------------------------------|
Gb|----------------------------------|
Db|-7-7--7-7-7--7--7-5-5--5-5-5--7-5-|
Ab|-5-5--5-5-5--5--5-3-3--3-3-3--5-3-|
Eb|----------------------------------|

2:36
eb|------------------------------------|
Bb|------------------------------------|
Gb|------------------------------------|
Db|5-2--2--2-5---5---5-2--2--2-5-5-7-5-|  x12
Ab|5-2--2--2-5-0-5-0-5-2--2--2-5-5-5-3-|
Eb|3-0--0--0-3-0-3-0-3-0--0--0-3-3-----|
Tap to rate this tab
# A B C D E F G H I J K L M N O P Q R S T U V W X Y Z