Guitaretab - guitar tabs
Song name
# A B C D E F G H I J K L M N O P Q R S T U V W X Y Z

Monster Magnet - Dopes To Infinity tab

Drop D

Intro

e -------------------------------------------|
b -------------------------------------------|
g -------------------------------------------|
d -------------------------------------------|
a -------------------------------------------|
d --0-3-0-4-0-5-0-5-6-7---0-3-0-4-0-5-0-6-7--|

Verse
[ Tab from: http://www.guitaretab.com/m/monster-magnet/79085.html ]
e -------------------------------------------|
b -------------------------------------------|
g -------------------------------------------|
d --7-7-7-5-7-10--7-7-5-7-10-----------------|
a --5-5-5-3-5-8---5-5-3-5-8------------------|
d -------------------------------------------|

Bridge

e ----------------------------|
b ----------------------------|
g ----------------------------|
d ---5---5---5--5--5-5--------|
a ---3---3---3--3--3-3--------|
d ----------------------------|


Chorus

e ----------------------------------------|
b ----------------------------------------|
g ----------------------------------------|
d --7--7--5--5--5/7--10-9--5--5--5-5------|
a --5--5--3--3--3/5--8--7--3--3--3-3------|
d ----------------------------------------|
Related for Dopes To Infinity tab
Advertisement will be closed in 10 seconds