Song name
# A B C D E F G H I J K L M N O P Q R S T U V W X Y Z

Monster Magnet - Stadium tab

STADIUM

4/4 time
in the key Em
tune 1/2 step down

INTRO/MAIN RIFF:
e|---||--------------------|
B|---||--------------------|
G|---||--------------------|
D|---||-2-0----------------|
A|---||------2-0--3-0--3---|
E|-0-||------------------0-|


CHORUS:
e|-------------------------------------------|
B|-------------------------------------------|
G|o-----------------------------------------o|
D|o---------------------------------5--5----o|
A|--7--7--7--5=======-7--7--7--5===-3--3-----|
E|--5--5--5--3=======-5--5--5--3===--------0-|
                                         Omit E during second 
                                         repeat of second chorus.
BRIDGE
  Play each chord X8
e|-------|------|-------|------||--------------|
B|-------|------|-------|------||--------------|
G|o------|------|-------|------||-------------o|
D|o-9--7-|-9--7-|-9--12-|-9--7-||-------------o|
A|--7--5-|-7--5-|-7--10-|-7--5-||--------------|
E|-------|------|-------|------||-0-0-3--0-0-3-|


SOLO
e|-------|------|--------------| X4
B|-------|------|--------------|
G|o------|------|-------------o|
D|o-9--7-|-9--7-|-------------o|
A|--7--5-|-7--5-|--------------|
E|-------|------|-0-0-3--0-0-3-|



END
e|---------------------------------------------------------|
B|---------------------------------------------------------|
G|o-------------------------------------------------------o| x4
D|o-9--9--9--9----7--7--7--7----9--9--9--9----12-12-12-12-o|
A|--7--7--7--7----5--5--5--5----7--7--7--7----10-10-10-10--|
E|---------------------------------------------------------|

e|--------------|
B|--------------|
G|--------------|
D|--9--9--7--9--|
A|--7--7--5--7--|
E|--------------|
Tap to rate this tab
# A B C D E F G H I J K L M N O P Q R S T U V W X Y Z