Song name
# A B C D E F G H I J K L M N O P Q R S T U V W X Y Z

Monster Truck - Seven Seas Blues tab

-------------------------------------------------------------------------------
                                               Seven Seas Blues - Monster Truck
-------------------------------------------------------------------------------

Official Website: http://ilovemonstertruck.com
Artist Page on Dine Alone Records: http://dinealonerecords.com/2011/index.php/artist/view/59

Tabbed by: Brandon
Email: brandon_819@msn.com

Tuning: Drop D


Intro
e|---|---------------------------|         *Note* in this tab ~ means let ring
B|---|---------------------------|                        and * means vibrato
G|---|---------------------------|                        and . means staccato
D|---|---------------------------|              and of course x means palm mute           
A|---|---5*---5-3-0~-1-0---------|
E|12/|-0~--0~------------5-0-3-2-|x4

Verse
e|------------------------------------------------------------------------|
B|------------------------------------------------------------------------|
G|------------------------------------------------------------------------|
D|------------------------------------------------------------------------|
A|-0-0-0-0-0-0-0-065-3-3-3-3-3-3-3-065-0-0-0-0-0-0-0-065-3-3-3-3-3-3-3065-|
E|-0-0-0-0-0-0-0-065-3-3-3-3-3-3-3-065-0-0-0-0-0-0-0-065-3-3-3-3030303065-|
   x x x x x x x xxx x x x x x x x xxx x x x x x x x xxx x x x x 

e|---------------------------------------------------------------------------------|
B|---------------------------------------------------------------------------------|
G|---------------------------------------------------------------------------------|
D|---------------------------------------------------------------------------------|
A|-0-0-0-0-0-0-0-065-3-3-3-3-3-3-3-065-0-0-0-0-0-0-0-065-3-3-3-3-0-3-0-3-0-3-0-065-|
E|-0-0-0-0-0-0-0-065-3-3-3-303-3-3-065-0-0-0-0-0-0-0-065-3-3-3-3-0-3-0-3-0-3-0-065-|
   . . . . . . .     . . . . . . .     . . . . . . .     . . . . 

Chorus
e|---------------------------|
B|---------------------------|
G|---------------------------|
D|---------------------------|           
A|---5*---5-3-0~-1-0---------|
E|-0~--0~------------5-0-3-2-|x4

Verse 2
e|------------------------------------------------------------------------|
B|------------------------------------------------------------------------|
G|------------------------------------------------------------------------|
D|------------------------------------------------------------------------|
A|-0-0-0-0-0-0-0-065-3-3-3-3-3-3-3-065-0-0-0-0-0-0-0-065-3-3-3-3-3-3-3065-|
E|-0-0-0-0-0-0-0-065-3-3-3-3-3-3-3-065-0-0-0-0-0-0-0-065-3-3-3-3030303065-|
   x x x x x x x xxx x x x x x x x xxx x x x x x x x xxx x x x x 

e|---------------------------------------------------------------------------------|
B|---------------------------------------------------------------------------------|
G|---------------------------------------------------------------------------------|
D|---------------------------------------------------------------------------------|
A|-0-0-0-0-0-0-0-065-3-3-3-3-3-3-3-065-0-0-0-0-0-0-0-065-3-3-3-3-0-3-0-3-0-3-0-065-|
E|-0-0-0-0-0-0-0-065-3-3-3-3-3-3-3-065-0-0-0-0-0-0-0-065-3-3-3-3-0-3-0-3-0-3-0-065-|
   . . . . . . .     . . . . . . .     . . . . . . .     . . . . 

Chorus 2
e|---------------------------|
B|---------------------------|
G|---------------------------|
D|---------------------------|           
A|---5*---5-3-0~-1-0---------|
E|-0~--0~------------5-0-3-2-|x4

Interlude
e|--------------------------|
B|--------------------------|
G|--------------------------|
D|--------------------------|           
A|--------0~----------------|
E|-0~-023---0~-8~-5-353-232-|x6

Solo (Starts after Interlude plays twice)
e|--------------------------------------------------------------------------|
B|-10-----10---------10-----10---------15-----15--------15-----15----18-----|
G|-12b14~-12b14-12~--12b14~-12b14-12~--17b19~-17b19-17~-17b19~-17b19-20b22~-|
D|--------------------------------------------------------------------------|
A|--------------------------------------------------------------------------|
E|--------------------------------------------------------------------------|

Bridge
e|---------------------------|
B|---------------------------|
G|---------------------------|
D|---------------------------|           
A|---5*---5-3-0~-1-0---------|
E|-----0~------------5-0-3-2-|x4

Chorus 3
e|---------------------------|
B|---------------------------|
G|---------------------------|
D|---------------------------|           
A|---5*---5-3-0~-1-0---------|
E|-0~--0~------------5-0-3-2-|x3

e|---------------------------|
B|---------------------------|
G|---------------------------|
D|---------------------------|           
A|---5*---5-3-0~-1-0---------|
E|-----0~------------5-0-3-2-|

Outro
e|-----------|
B|-----------|  
G|-----------|  Add random feedback if you
D|-----------|  wanna fade out, otherwise
A|-----------|  just end on open E
E|-0~--12/0~-|

Thanks for reading, I hope it helps you out.
If you have and questions or corections lemme know in the comments.
Tap to rate this tab
# A B C D E F G H I J K L M N O P Q R S T U V W X Y Z