Song name
# A B C D E F G H I J K L M N O P Q R S T U V W X Y Z

Monster Truck - Sweet Mountain River tab

-------------------------------------------------------------------------------
                             SWEET MOUNTAIN RIVER - Monster Truck
-------------------------------------------------------------------------------
Tabbed by:  Davo1979
E-mail:  DLemur79@gmail.com

Tuning:  Stardard D


Intro:
d|---------------------------------|       |----|
A|---------------------------------|       |----|
F|---------------------------------|       |----|
C|-------------------------------5-|  (x4) |----|
G|-7~-7-5-7~-7-5-7~----------5-7---|       |-7\-|
D|-0--0-0-0--0-0-0--0-3-5-/7-------|       |-0--|


                                                           Fill
Verse 1:                                             d|---------------------|
                                                     A|---------------------|
Sweet mountain river, come take me away              F|---------------------|
Way west of the prairies,is where I'm gonna stay     C|---------------5-----|
Sweet mountain river, I'm gonna make you my home     G|-----------5-7---7~\-|
Because you fill me with that sweet sweet joy        D|--0-3-5-/7-------0---|

Pre-Chorus:
d|---------------------------------|
A|---------------------------------|
F|---------------------------------|  'And I'm never gonna leave you alone'
C|---------------------------------|
G|-7~-7-5-7~-7-5-7~--7-5-----------|
D|-0--0-0-0--0-0-0-------7-5-3-0---|


Chorus:
d|---------------------------------------------------------------|
A|---------------------------------------------------------------|
F|---------------------------------------------------------------|
C|-------------------------------------------------------------5-|  (X4)
G|-7~-7-5-7~-7-5-7~--7-5-----------------------------------5-7---|
D|-0--0-0-0--0-0-0-------7-5-3-0-5~-5-3-5~-5-3-5~-0-3-5-/7-------|
                                   I, Haven't felt home, In this city, For so long


d|---------------------------------|
A|---------------------------------|
F|---------------------------------|      'For so long yeah'(x2)
C|-------------------------------5-|
G|-7~-7-5-7~-7-5-7~----------5-7---|
D|-0--0-0-0--0-0-0--0-3-5-/7-------|


Verse 2:                                                   Fill
                                                    d|---------------------|
Sweet mountain woman, I'm gonna take you with me    A|---------------------|
I'm gonna give you everything you want,             F|---------------------|
And you're never gonna wanna leave                  C|---------------5-----|
Sweet mountain woman, I'm gonna show you my way     G|-----------5-7---7~\-|
I'm gonna see you at the break of dawn,             D|--0-3-5-/7-------0---|

Pre-Chorus:
d|---------------------------------|
A|---------------------------------|
F|---------------------------------|  'I'm gonna see you when the light goes away'
C|---------------------------------|
G|-7~-7-5-7~-7-5-7~--7-5-----------|
D|-0--0-0-0--0-0-0-------7-5-3-0---|

(Chorus x2)

(Solo)

N.C.
      I, Haven't felt home, In this city, For so long

  Pm...................................................................
d|---------------------------------------------------------------------|
A|---------------------------------------------------------------------|
F|---------------------------------------------------------------------|
C|---------------------------------------------------------------------|  (X2)
G|-7~--7-5-7~--7-5-7~--7-5-7-5-7-5~------------------------------------|
D|-0---0-0-0---0-0-0---0-0-0-0-0-0-5~--5-3-5~--5-3-5~--5-3-5-3-5-3-5~--|
           I, Haven't felt home, In this city, For so long

(Chorus x2)

For so long yeah (x4)

************************************

| /   slide up
| \   slide down
| h   hammer-on
| p   pull-off
| ~   vibrato
| +   harmonic
| x   Mute note
| b   Bend
| pm  palm mute

************************************
Tap to rate this tab
# A B C D E F G H I J K L M N O P Q R S T U V W X Y Z