Song name
# A B C D E F G H I J K L M N O P Q R S T U V W X Y Z

Monte Montgomery - Erased tab

Artist:   Monte Montgomery
Song:     Erased
Album:    Wishing Well

This is my first tab, so i hope it helps any monte fans out there. The Intro should be 
The chords sound correct and pritty close to the lyrics they are all positioned next to 
are not exactly on the words, for i did not take the time to do them exactly but it should sould good).

/  = Slide up
<> = harmonics


Intro:

e|---------0-----------------------------------------------<5>-------------|
B|-------1----3-0------------------------------------------<5>-------------|
G|-----4-----------0-------0------------------0--2---------<5>---------0---|
D|--------------------2/4-----2-0-----0h2-----------2------<5>------4------|
A|--0------------------------------3-------3---------------------/5--------|
E|------------------------------------------------------0------------------|

Am              Em             C              Em      (Lick 1)
A fresh coat of winter stretches beneath the postcard sky

Am              Em             C              Em       (Lick 1)
Broken pieces of dawn may fade as the sun sets in the night

Am              Em             C              Em       (Lick 1)
The scene looks like a movie set all perfectly displayed

AM              Em            F            C
Well I feel like summer at a thanksgiving parade


D                  G
Maybe this isnt the time or place
D                   G
Maybe this is just time we waste
Am              C                 D
I just wish that i could see your face
Am                     G/B                 C              D
For just one momoment i could get back what took so litle time to be
F             (Lick 2)
Erased Erased

My temperature is rising now hot tar beneath my feet
Cars passing my waving palm as my hope yields to retreat
Thought turn to thoughts of you when the past was less unknown
Im more of a stranger than anyone ive never known

Maybe this isnt the time or place
Maybe this is just time we waste
I just wish that i could see your face
For just one momoment i could get back what took so litle time to be
Erased Erased

Gray Sky collecting clouds for a midnight winter rain
Traveling in familiar circles but the faces dont fit the names
I cant seem to get past the point of nothing left to loose
I feel like a misprint in yesterdays news

Maybe this isnt the time or place
Maybe this is just time we waste
I just wish that i could see your face
For just one momoment i could get back what took so litle time to be
Erased Erased


Lick 1
e|------------------------------------|
B|------------------------------------|
G|----------<5>-----------------------|
D|--------4---------------------------|
A|-----/5-----------------------------|
E|------------------------------------|
(Lick 2)
e|------------------------------------|
B|------------------------------------|
G|------------------------------------|
D|---2--0-----------------------------|
A|---------3--2--0--------------------|
E|------------------------------------|
Tap to rate this tab
 
# A B C D E F G H I J K L M N O P Q R S T U V W X Y Z