Song name
# A B C D E F G H I J K L M N O P Q R S T U V W X Y Z

Moonspell - Night Eternal tab

================================================================
                   Night Eternal

                     Moonspell

                   Night Eternal
================================================================

               Tabbed by:  John Moores
                mooresjw@email.uc.edu
~~~~~~~~~~~~~~~~~~~~~~~~~~~~~~~~~~~~~~~~~~~~~~~~~~~~~~~~~~~~~~~~

I realize that Moonspell probably doesn't play in this tuning,
but this is the way I play it, and how I tabbed it out.  So
before you all bash the tab, tune it this way, and play through
it, and then let me know.  This tuning just makes it easier
for me personally.


Tuning: Drop C (CGCFAD)

* = Palm Mute
@ = Pinched harmonic
x = muted




Intro
0:00


Guitar I

Clean/Slightly distorted, with echo/reverb
|-------------------------------------------------------|
|-------------------------------------------------------|
|-------------------------------------------------------|
|-------6--7--6------6--7--6------6--7--6-------6-----6-|  x8
|-----6------------6------------6-------------6-----6---|
|---6------------6------------6-------------7-----7-----|

This continues up to 0:45


Guitar II
0:11

|-------------------------------------------------------|
|-------------------------------------------------------|
|-------------------------------------------------------|
|--6\----------6\----------6\---------------6-------6---|  x2
|--6\----------6\----------6\-------------6-------6-----|
|--6\--66-6-6--6\--66-6-6--6\--66-6-6---7-------7-------|
       ** * *      ** * *      ** * *

0:22

|-------------------------------------------------------|
|-------------------------------------------------------|
|-------------------------------------------------------|
|--6----------6----------6-------------------6-------6--|  x4
|--6--66-6-6--6--66-6-6--6--66-6-6-------6--------6-----|
|--6--66-6-6--6--66-6-6--6--66-6-6---7---------7--------|



0:45

Both Guitar I and II
|-------------------------------------------------------|
|-------------------------------------------------------|
|-------------------------------------------------------|
|-------------------------------------------------------|
|-------------------------------------------------------|
|--66666-6--6----66666-6--6---///16\\\\-----------------|
   ***** *  *    ***** *  *


Verse 1
0:48

|-------------------------------------------------------|
|-------------------------------------------------------|
|-------------------------------------------------------|
|-------------------------------------------------------|  x4
|-------------------------------------------------------|
|--666666667777776666677779999999777777-7h9p7-----------|
   ************************************


1:10

|-------------------------------------------------------|
|-------------------------------------------------------|
|-------------------------------------------------------|
|--9----------9----------9------------------------------|  x2
|--9--99-9-9--9--99-9-9--9--99-9-9------10---10---8---8-|
|--9--99-9-9--9--99-9-9--9--99-9-9---10---10----8---8---|


Verse 2
1:22

|-------------------------------------------------------|
|-------------------------------------------------------|
|-------------------------------------------------------|
|-------------------------------------------------------|  x4
|-------------------------------------------------------|
|--666666667777776666677779999999777777-7h9p7-----------|
   ************************************


Chorus
1:45

|------------------------------------------------|
|------------------------------------------------|
|--8--88--8-8---8--88--8-8-----------------------|
|--8--88--8-8---8--88--8-8-----9---9---6---6-----|  x4
|--6--66--6-6---6--66--6-6---7---7---4---4-------|
|------------------------------------------------|



Intro Riff
2:07

Guitar I

Clean/Slightly distorted, with echo/reverb
|-------------------------------------------------------|
|-------------------------------------------------------|
|-------------------------------------------------------|
|-------6--7--6------6--7--6------6--7--6-------6-----6-|
|-----6------------6------------6-------------6-----6---|
|---6------------6------------6-------------7-----7-----|


|-------------------------------------------------------|
|-------------------------------------------------------|
|-------------------------------------------------------|
|-------6--7--6------6--7--6------6--7--6---7-----------|
|-----6------------6------------6-----------7-----------|
|---6------------6------------6-------------7-----------|


Guitar II
2:07

|-------------------------------------------------------|
|-------------------------------------------------------|
|-------------------------------------------------------|
|--6\----------6\----------6\---------------6-------6---|
|--6\----------6\----------6\-------------6-------6-----|
|--6\--66-6-6--6\--66-6-6--6\--66-6-6---7-------7-------|
       ** * *      ** * *      ** * *

|-------------------------------------------------------|
|-------------------------------------------------------|
|-------------------------------------------------------|
|--6\----------6\----------6\-----------7---------------|
|--6\----------6\----------6\-----------7---------------|
|--6\--66-6-6--6\--66-6-6--6\--66-6-6---7---------------|
       ** * *      ** * *      ** * *




Guitar I
2:17

|------------------------|
|------------------------|
|------------------------|
|------------------------|
|------------4--5--7-----|
|---6--7--9--------------|
    *  *  *  *  *  *


Solo Rhythm 1

Guitar I

2:18

|-------------------------------------------------------|
|-------------------------------------------------------|
|-------------------------------------------------------|
|---9-------9-------9-------9-------9-----9-------------|  x4
|---7--7-7--7--7-7--7--7-7--7--7-7--7--7--7-------------|
|-------------------------------------------------------|
       * *     * *     * *     * *     *



Guitar II

Solo 1
2:18

Don't know it yet


Guitar I and II


|-------------------------------------------------------|
|-------------------------------------------------------|
|-------------------------------------------------------|
|---5--5-5--5--5--5-5--5---2--2-2--2--2--2-2----2-------|  x2
|---3--3-3--3--3--3-3--3---0--0-0--0--0--0-0----0-------|
|-------------------------------------------------------|


Solo Rhythm 2


Guitar I

|-------------------------------------------------------|
|-------------------------------------------------------|
|-------------------------------------------------------|
|---9-------9-------9-------9-------9-----9-------------|  x4
|---7--7-7--7--7-7--7--7-7--7--7-7--7--7--7-------------|
|-------------------------------------------------------|
       * *     * *     * *     * *     *

Guitar II


Bridge
2:52


Guitar I

|-----------------------------------|
|------------------------8----------|
|------------------------7----------|
|------------------------5----------|  x16
|-----------------------------------|
|---44444-4-4--44444-4-4------------|
    ***** * *  ***** * *

Guitar II

|-----------------------------------|
|-----------------------------------|
|-----------------------------------|
|------------------------5----------|  x10
|------------------------5----------|
|---44444-4-4--44444-4-4-5----------|
    ***** * *  ***** * *

Guitar II
3:20

|-----------------------------------|
|-----------------------------------|
|-----------------------------------|
|-----------------------------------|  x6
|-----------------------------------|
|---444444444444444444444444444-----|
    ***************************


Chorus
3:32

|------------------------------------------------|
|------------------------------------------------|
|--8--88--8-8---8--88--8-8-----------------------|
|--8--88--8-8---8--88--8-8-----9---9---6---6-----|  x4
|--6--66--6-6---6--66--6-6---7---7---4---4-------|
|------------------------------------------------|


Intro Riff
3:54

Guitar I

Clean/Slightly distorted, with echo/reverb
|-------------------------------------------------------|
|-------------------------------------------------------|
|-------------------------------------------------------|
|-------6--7--6------6--7--6------6--7--6-------6-----6-|
|-----6------------6------------6-------------6-----6---|
|---6------------6------------6-------------7-----7-----|


|-------------------------------------------------------|
|-------------------------------------------------------|
|-------------------------------------------------------|
|-------6--7--6------6--7--6------6--7--6-------6-----6-|
|-----6------------6------------6-------------6-----6---|
|---6------------6------------6-------------7-----7-----|


Guitar II

|-------------------------------------------------------|
|-------------------------------------------------------|
|-------------------------------------------------------|
|--6\----------6\----------6\---------------6-------6---|
|--6\----------6\----------6\-------------6-------6-----|
|--6\--66-6-6--6\--66-6-6--6\--66-6-6---7-------7-------|
       ** * *      ** * *      ** * *

|-------------------------------------------------------|
|-------------------------------------------------------|
|-------------------------------------------------------|
|--6\----------6\----------6\---------------6-------6---|
|--6\----------6\----------6\-------------6-------6-----|
|--6\--66-6-6--6\--66-6-6--6\--66-6-6---7-------7-------|
       ** * *      ** * *      ** * *
Tap to rate this tab
# A B C D E F G H I J K L M N O P Q R S T U V W X Y Z