Song name
# A B C D E F G H I J K L M N O P Q R S T U V W X Y Z

Moonspell - In Memoriam tab

=====================================
              Moonspell
             In Memoriam
Track #1 on the 2006 album "Memorial"
=====================================

Tabbed by Pedro Macedo, A.K.A. Linkerman
Comments and ratings are very much appreciated!
Send a PM or e-mail me to "o_samaritano-hellboy(at)sapo.pt"

Standard tuning


Rhythm guitar enters at 00:23
e|------------------|
B|------------------|
G|------------------| x8
D|-6--4-7--9-6--4-5-|
A|-6--4-7--9-6--4-5-|
E|-4--2-5--7-4--2-3-|


On the 3rd time, lead guitar enters (clean):
e|---------------------------------|
B|---------------------------------|
G|---9-8-6---9-8-6---9-8-6-8-6-8-6-| x2
D|-6-------7-------6---------------|
A|---------------------------------|
E|---------------------------------|
Then play 4 more times with distortion
Tap to rate this tab
# A B C D E F G H I J K L M N O P Q R S T U V W X Y Z