Song name
# A B C D E F G H I J K L M N O P Q R S T U V W X Y Z

Morningwood - Take Off Your Clothes tab

-----------------------------------------------------------------------------
                       Morningwood - Take Off Your Clothes
-----------------------------------------------------------------------------
Tabbed by: Jasgor9

Tuning: Standard (E,A,D,G,B,e)

Intro (0:00-0:18 , 1:10-1:18 , 2:34-2:47):

e|--------------------------------------------------------------------------|
B|--------------------------------------------------------------------------|
G|---------12\---7/9--9-9-9-9-9-9\7-7-7-7/9--9-9-9-9-9/12-12-12-12----------|
D|-2~------------7----------------7-7-7-7/----------------------------------|
A|-2~-----------------------------------------------------------------------|
E|-0~-----------------------------------------------------------------------|


Verse (Where Chantal says "Just take off your clothes!" and there is backup vocals)
, 0:45-0:50 , 1:05-1:09 , 1:50-1:54 , 3:04-3:10):

e|--------------------------------------------------------------------------|
B|--------------------------------------------------------------------------|
G|-7---7-7-7-7-7-7-7777-----------------------------------------------------|
D|-7---7-7-7-7-7-7-7777-----------------------------------------------------|
A|-5---5-5-5-5-5-5-5555-----------------------------------------------------|
E|--------------------------------------------------------------------------|


Chorus (0:50-1:05 , 1:35-1:49 , 2:48-3:03):

e|------------------------------------------------------|
B|------------------------------------------------------|
G|-9--99--9--7------------------------------------------|
D|-9--99--9--7------------------------------------------|
A|-7--77--7--5------------------------------------------|
E|------------------------------------------------------|


Solo (1:55-2:09):

*Note: Despite sounding easy, this solo was extremely hard to tab because the guitar
from hammer-on's to slides and to normal note changes all within a matter of seconds,
the notes hard to tell apart, so it is not correct. My apologies for the inconvenience. 
you listen to the song as you play, you can figure out the end part of the solo.

e|--------------------------------------------------------------------------|
B|--------------------------------------------------------------------------|
G|-7/9-9-9-9-9-9-9\7-7/9-9-9-9-9-9-9h11-11-11h12-12-12----------------------|
D|-7---------------7-7------------------------------------------------------|
A|--------------------------------------------------------------------------|
E|--------------------------------------------------------------------------|

e|--------------------------------------------------------------------------|
B|--------------------------------------------------------------------------|
G|-12-12-14-14-14-14-14h15-15h16-16-16-16-16\-------------------------------|
D|--------------------------------------------------------------------------|
A|--------------------------------------------------------------------------|
E|--------------------------------------------------------------------------|


What to Play:

Intro x1
Verse (Riff played twice during this time)
Chorus x4
Verse Riff x1
Intro x1 without first note
Verse (Riff is not played)
Chorus x4
Solo x1
Verse Riff x1
Verse (Riff is not played)
Intro x1 without first note (in background of verse close to the end of it)
Chorus x4
Verse Riff x1

=============================================================================
| /  slide up
| \  slide down
| h  hammer-on
| p  pull-off
| ~  vibrato
| +  harmonic
| x  Mute note
=============================================================================
Tap to rate this tab
# A B C D E F G H I J K L M N O P Q R S T U V W X Y Z