Song name
# A B C D E F G H I J K L M N O P Q R S T U V W X Y Z

Motel - Aurora tab

Hola a todos :D soy cmpunk14 y esta es la TAB de AURORA de MOTEL.
Si esta es solo la Guitarra Ritmica pero esta 100% correcta :D
y agradescan a mi amigo que es un gran musico y que hizo esta Tab: Fernando Arroyo
Ultimate Guitar: Fergto78
Youtube Channel: http://www.youtube.com/fergto78
correo electronico: fergto78@facebook.com
facebook: http://facebook.com/fergto78

Disfrutenla!!!

                             (MOTEL  -  AURORA)
Tunning: Standard (eBGDAE)
Afinacion: Standard (eBGDAE)


Intro Con delay                     NOTA
|---------------------------------|-------|------------------10---|
|-----------13------------------13|-------|12-------13------------|
|-----12----12------12--12--------|-12----|---12-------12-------12|
|---10---10----10-----10--10------|----10-|------10-------10------|
|-10--------------10--------10--10|-------|10-------10-------10---|
|---------------------------------|-------|-----------------------|

----12-------------------------10------------|
-------------12-------13-------------13----13|
-------12-------12-------12------12----12--12|
-10-------10-------10-------10-----10----10--|
----10-------10-------10-------10----10------|
---------------------------------------------|


NOTA si no se toca con delay se puede tocar así en cada combinación de 12 10
|--------|
|--------|
|-12--12-|
|---10---|
|--------|
|--------|
                                         
|---------------------------10----------12----10-----------------------15~~~~-------------|
|---------12-------13-------------13-----------------12-------13--------------------------|
|------------12-------12------12----12----12----12------12-------12-------12----12--------|
|----10---------10-------10-----10----10----10----10-------10-------10-------10----10-----|
|-10------10-------10-------10----10----10----10-----10-------10-------10-------10----10--|
|-----------------------------------------------------------------------------------------|
Verso 1
|-------------------10-------12------------------------------------------------------------------|
|-13-------12------------------------------------------------------------------------------------|
|----12-------12-------12-------12---------10--10--10--10--9--9--9--9--7--7--7--7--9--9--9--9----|
|-------10-------10-------10-------10----10--10--10--10--10-10-10-10-10-10-10-10-10-10-10-10-----|
|-10-------10-------10-------10--------8---------------------------------------------------------|
|------------------------------------------------------------------------------------------------|

|-------------------10-------12------------------------------------------------------------------|
|-13-------12------------------------------------------------------------------------------------|
|----12-------12-------12-------12---------10--10--10--10--9--9--9--9--7--7--7--7--9--9--9--9----|
|-------10-------10-------10-------10----10--10--10--10--10-10-10-10-10-10-10-10-10-10-10-10-----|
|-10-------10-------10-------10--------8---------------------------------------------------------|
|------------------------------------------------------------------------------------------------|
Pre Coro 1
|--------------------------------------------------------------------------|
|-10-------13-------12-------10----------------13-------12-------10--------|
|-------10----10-------10-------10----------12----12-------12-------12-----|
|----10----------10-------10-------10----10----------10-------10-------10--|
|-------------------------------------10-----------------------------------|
|--------------------------------------------------------------------------|

|----------------------------------------------------------------10~~~~----|
|-10-------13-------12-------10----------------13-------12-----------------|
|-------10----10-------10-------10----------12----12-------12--------------|
|----10----------10-------10-------10----10----------10-------10-----------|
|-------------------------------------10-----------------------------------|
|--------------------------------------------------------------------------|
Verso 2 
|------------------10-------------------------------------------------------------------------|
|---------------------------------------------------------------------------------------------|
|---------12----------------12------------10--10--10--10--9--9--9--9--7--7--7--7--9--9--9--9--|
|-10----10---10-------10-------10-------10--10--10--10--10-10-10-10-10-10-10-10-10-10-10-10---|
|----10---------10-------10-------10--8-------------------------------------------------------|
|---------------------------------------------------------------------------------------------|

|---------------------------------------------------------------------------------------------|
|---------------------------------------------------------------------------------------------|
|---------12----------------12------------10--10--10--10--9--9--9--9--7--7--7--7--9--9--9--9--|
|-10----10---10----10----10----10-------10--10--10--10--10-10-10-10-10-10-10-10-10-10-10-10---|
|----10---------10----10----------10--8-------------------------------------------------------|
|---------------------------------------------------------------------------------------------|

Pre Coro 2
|--------------------------------------------------------------------------|
|-10-------13-------12-------10----------------13-------12-------10--------|
|-------10----10-------10-------10----------12----12-------12-------12-----|
|----10----------10-------10-------10----10----------10-------10-------10--|
|-------------------------------------10-----------------------------------|
|--------------------------------------------------------------------------|

|--------------------------------------------------------------------------|
|-10-------13-------12-------10----------------13-------12-------10--------|
|-------10----10-------10-------10----------12----12-------12-------12-----|
|----10----------10-------10-------10----10----------10-------10-------10--|
|-------------------------------------10-----------------------------------|
|--------------------------------------------------------------------------|
Coro 
|-------------------|
|-------------------|
|-------------------|
|-7----5----3-------|
|-7----5----3-------|
|-5----3----1-------|
Pre solo
|---------------------------------------------------|
|-------------------------6-6-6-6-6-6---------------|
|--------------------------9-9-9-9-9-9/14~~~--------|
|-9-7-9-10-12-10-9----------------------------------|
|------------------10--12---------------------------|
|---------------------------------------------------|
Solo
|---------------(2 tiempos)-----------------------------|
|-------------------------------------------------------|
|.---------/17~~~~---------/16~~~~-10/9/7/5/-10/9/7/5--.|
|.-10/14/7---------12/15/5---------X--X-X-X--X--X-X-X--.|
|----------------------------------8-/7/5/3/-8-/7/5/3---|
|-------------------------------------------------------|
Coro 
|-------------------|
|-------------------|
|-------------------|
|-7----5----3-------|
|-7----5----3-------|
|-5----3----1-------|

Outro
|-------------------10-------12-------------------------10------12--------|
|-12-------13-------------------------12-------13-------------------------|
|----12-------12-------12-------12-------10-------10-------10------10-----|
|-------10-------10-------10-------10-10----10-10----10-10---10-10----10--|
|-10-------10-------10-------10-------------------------------------------|
|-------------------------------------------------------------------------|

                                |--------------------------------------------------------|
                                |--------------------------------------------------------|
                                |----10--10--10--10--9--9--9--9--7--7--7--7--9--9--9--9--|
                                |--10--10--10--10--10-10-10-10-10-10-10-10-10-10-10-10---|
                                |--------------------------------------------------------|
                                |--------------------------------------------------------|

|-------------------10-------12-------------------------15~~~~--|
|-12-------13-------------------------12-------13---------------|
|----12-------12-------12-------12-------10-------10------------|
|-------10-------10-------10-------10-10----10-10----10---------|
|-10-------10-------10-------10---------------------------------|
|---------------------------------------------------------------|

                                |-----------------------------------|
                                |-----------------------------------|
                                |----10--10--10--10--9--9--9-~~~~---|
                                |--10--10--10--10--10-10-10-10-~~~~-|
                                |-----------------------------------|
                                |-----------------------------------|


COMENTEN CUALQUIER DUDA O COMENTARIO :D
Tap to rate this tab
# A B C D E F G H I J K L M N O P Q R S T U V W X Y Z