Song name
# A B C D E F G H I J K L M N O P Q R S T U V W X Y Z

Motel - Dime Ven tab

-------------------------------------------------------------------------------
			     dime ven - motel
-------------------------------------------------------------------------------
Tabbed by:rikardo
Email:krank_o@hotmail.com

Tuning:standar

intro
                                                                          x2
e|---------------------------------------------------------------------------|
B|---------------------------------------------------------------------------|
G|---------------------------------------------------------------------------|
D|--10-10-10-9-9-9----------10-10-10-9-9-------------------------------------|
A|----------------10-10-10---------------10----------------------------------|
E|---------------------------------------------------------------------------|

e|---------------------------------------------------------------------------|
B|---------------------------------------------------------------------------|
G|---------------------------------------------------------------------------|
D|---10-10-10-9-9-9-------10-10-10-9-9---------------------------------------|
A|------------------7-7-7-------------7--------------------------------------|
E|---------------------------------------------------------------------------|

e|---------------------------------------------------------------------------|
B|---------------------------------------------------------------------------|
G|--------------------------7-7-7--------------------------------------------|
D|---10-10-10-9-9-9-10-10-10------10-10-9-10---------------------------------|
A|---------------------------------------------------------------------------|
E|---------------------------------------------------------------------------|

verso

C                   Em
Siento que me tocas sin ver
                     Am
que te apareces detras de la pared
 Fm
detras de mis recuerdos

   C                  Em
y siento las caricias de ayer
                       Am
de aquellos labios que busco sin saber
   Fm
te quiero ver por dentro


  Dm                  Em
y entre las llamadas busque
                     F
un mensaje oculto encontre
          G
y es que quiero saber

CORO

 C
dime que me crees dime que me crees
 Am
dime que sientes cuando me ves
 F
o cuando me voy cuando no estoy
 Fm
dime ven ven dime ven ven dime

 C
dime otra vez nunca te olvide
 Am
dime que quieres volverme a ver
 F
sin importar lo que vendra
 Fm
dime ven ven dime ven ven dime
                                                                          x2
e|---------------------------------------------------------------------------|
B|---------------------------------------------------------------------------|
G|---------------------------------------------------------------------------|
D|--10-10-10-9-9-9----------10-10-10-9-9-------------------------------------|
A|----------------10-10-10---------------10----------------------------------|
E|---------------------------------------------------------------------------|

e|---------------------------------------------------------------------------|
B|---------------------------------------------------------------------------|
G|---------------------------------------------------------------------------|
D|---10-10-10-9-9-9-------10-10-10-9-9---------------------------------------|
A|------------------7-7-7-------------7--------------------------------------|
E|---------------------------------------------------------------------------|

e|---------------------------------------------------------------------------|
B|---------------------------------------------------------------------------|
G|--------------------------7-7-7--------------------------------------------|
D|---10-10-10-9-9-9-10-10-10------10-10-9-10---------------------------------|
A|---------------------------------------------------------------------------|
E|---------------------------------------------------------------------------|

verso2

C               Em
cada espacio cada lugar
                  Am
cada palabra inmortal que has repitido
     Fm
grabo en mi cuerpo tu sonido

 C                 Em
cada vez que quiero soņar
                  Am
solo hace falta pensar en el inicio
                      Fm
de lo que nos traera el destino

 Dm                   Em
busco en las palabras la fe
                     F
las caricias que desde ayer
       G
porque quiero saber

coro

C
dime que me crees dime que me crees
 Am
dime que sientes cuando me ves
 F
o cuando me voy cuando no estoy
 Fm
dime ven ven dime ven ven dime

 C
dime otra vez nunca te olvide
 Am
dime que quieres volverme a ver
 F
sin importar lo que vendra
 Fm
dime ven ven dime ven ven dime

---------------------------------------
me falta poko para sakar el solo
luego lo pongo.
---------------------------------------

solo c toka una vez por acorde

 C
dime que me crees dime que me crees
 Am
dime que sientes cuando me ves
 F
o cuando me voy cuando no estoy

aki c toka normal
 Fm
dime ven ven dime ven ven dime

coro

C
dime otra vez nunca te olvide
 Am
dime que quieres volverme a ver
 F
sin importar lo que vendra
 Fm
dime ven ven dime ven ven dime
                                                                          x2
e|---------------------------------------------------------------------------|
B|---------------------------------------------------------------------------|
G|---------------------------------------------------------------------------|
D|--10-10-10-9-9-9----------10-10-10-9-9-------------------------------------|
A|----------------10-10-10---------------10----------------------------------|
E|---------------------------------------------------------------------------|
e|---------------------------------------------------------------------------|

e|---------------------------------------------------------------------------|
B|---------------------------------------------------------------------------|
G|---------------------------------------------------------------------------|
D|---10-10-10-9-9-9-------10-10-10-9-9---------------------------------------|
A|------------------7-7-7-------------7--------------------------------------|
E|---------------------------------------------------------------------------|

e|---------------------------------------------------------------------------|
B|---------------------------------------------------------------------------|
G|---22xx22------------------------------------------------------------------|
D|---33xx33------------------------------------------------------------------|
A|---33xx33------------------------------------------------------------------|
E|---11xx11------------------------------------------------------------------|

weno esto es
es mi primer tab pero es korrecta
Tap to rate this tab
# A B C D E F G H I J K L M N O P Q R S T U V W X Y Z