Song name
# A B C D E F G H I J K L M N O P Q R S T U V W X Y Z

Motion City Soundtrack - It Had To Be You tab

Artist: Motion City Soundtrack
Song: It Had To Be You
Album: Even If It Kills Me
Tunning: Half-step down
Tabbed By: >>Max<<

I saw that someone requested this tab, so I figured I would try it out. I didn't put a 
lot of effort into it, so it doesn't tell you how many times to play each chord, but it's 
to figure out.  If you know these parts, you can figure out anything I left out.

Also, this is only one guitar's part, but it sounds like Josh and Justin play similar 
so I hope this is fine.


Intro/Verse 1
(I get lost...never even called)

Eb|-----------------------------------------------------------------------------------------------|
Bb|-7-----7-----7-----7-----7-----7-----7-----7-----7-----7-----7-----7-----7-----7-----7-----7---|
Gb|----9-----------9-----------9-----------9-----------8-----------8-----------8-----------8------|
Db|----------9-----------9-----------9-----------9-----------9-----------9-----------9-----------9|
Ab|-----------------------------------------------------------------------------------------------|
Eb|-----------------------------------------------------------------------------------------------|


Pre chorus 1 (Do you feel...type of harmony)

Eb|-----------------------------------|
Bb|-----------------------------------|
Gb|-2-----------4-----2-----------4---|
Db|-2-----2-----4-----2-----2-----4---|
Ab|-0-----2-----2-----0-----2-----2---|
Eb|-------0-----------------0---------|


Chorus(What if it was you...pretending we were wrong)

Eb|-------------------------------|
Bb|-------------------------------|
Gb|-------------------------------|
Db|-2---4---7-----2---4---7---9---|
Ab|-2---4---7-----2---4---7---9---|
Eb|-0---2---5-----0---2---5---7---|


Pre chorus 1 (Do you feel...type of harmony)

Eb|-----------------------------------|
Bb|-----------------------------------|
Gb|-2-----------4-----2-----------4---|
Db|-2-----2-----4-----2-----2-----4---|
Ab|-0-----2-----2-----0-----2-----2---|
Eb|-------0-----------------0---------|


Verse 2(Let's get wrecked...I can't wait)

Eb|---------|
Bb|---------|
Gb|-----4---|
Db|-2---4---| x4
Ab|-2---2---|
Eb|-0-------|

Pre Chorus 2 (Do you spend...frying pan)

Eb|-------------------------|
Bb|-------------------------|
Gb|-2-------4---2-------4---|
Db|-2---2---4---2---2---4---| (Hold notes until the final chord)
Ab|-0---2---2---0---2---2---|
Eb|-----0-----------0-------|


Bridge (It seemed like a dream....who we are)

Eb|-----------------------|
Bb|-----------------------|
Gb|-----------------------|
Db|---2---7---4---7---2---|  x2
Ab|---2---7---4---7---2---|
Eb|---0---5---2---5---0---|


Ending

Eb|---------------------------|
Bb|---------------------------|
Gb|---------------------------|
Db|---2---4---7---9---2---6---|
Ab|---2---4---7---9---2---6---|
Eb|---0---2---5---7---0---4---|


ORDER:
Intro/Verse 1
Pre chorus 1
Chorus
Verse 2
Pre Chorus 2
Chorus
Bridge
Intro/Verse 1
Pre chorus 1
Chorus
Ending


Comment any corrections.
Tap to rate this tab
 
# A B C D E F G H I J K L M N O P Q R S T U V W X Y Z