Song name
# A B C D E F G H I J K L M N O P Q R S T U V W X Y Z

Motley Crue - Starry Eyes tab

Mötley Crüe - Starry Eyes
by ulisses

Guitar Tune Down 1 Step

Intro
D||---------------------------------------------------|
A||---------------------------------------------------|
F||---------------------------------------------------|
C||--5--------9-9--7--9--4-4--------4-4--2--4----4-5--|
G||--7--------7-7--5--7--5-5--------5-5--3--5----5-7--|
D||-----0-0-0-----------------0-0-0-------------------|

Verse
-------------------------------------------------------------------|
-------------------------------------------------------------------|
-------------------------------------------------------------------|
--5---5--5--5--4-4---4--4--4--4-2-2---2--2--2--2-4-4--4--4--4--4-5-|
--7---7--7--7--5-5---5--5--5--5-3-3---3--3--3--3-5-5--5--5--5--5-7-|
-------------------------------------------------------------------|

Chorus
------------|-------------------------------------|
------------|-------------------------------------|
------------|-------------------------------------|
7-7-7-7-7-7-|--9----5--7----5--7--5---------------|
5-5-5-5-5-5-|--7----3--5----3--5--3----0--3--2~~--|
------------|-------------------------------------|

Before solo
     x8                x2               x2
-----------------|-----------------|-----------------|
-----------------|-----------------|-----------------|
-----------------|-----------------|-----------------|
---------2-------|-----------------|---------2-------|
-0-3-2-3---3-2-3-|---------2-------|-0-3-2-3---3-2-3-|
-----------------|-0-3-2-3---3-2-3-|-----------------|

       x2                x2
------------------|-----------------|
------------------|-----------------|
------------------|-----------------|
------------------|---------2-------|
----------2-------|-0-3-2-3---3-2-3-|
--0-3-2-3---3-2-3-|-----------------|
Tap to rate this tab
 
# A B C D E F G H I J K L M N O P Q R S T U V W X Y Z